  0
SECTION
  2
HEADER
  9
$ACADVER
  1
AC1014
  9
$ACADMAINTVER
 70
     9
  9
$DWGCODEPAGE
  3
ANSI_932
  9
$INSBASE
 10
0.0
 20
0.0
 30
0.0
  9
$EXTMIN
 10
-274.8987897708685
 20
-105.6543316050735
 30
0.0
  9
$EXTMAX
 10
274.1012160669349
 20
103.0030595463302
 30
0.0
  9
$LIMMIN
 10
-148.5
 20
-105.0
  9
$LIMMAX
 10
148.5
 20
105.0
  9
$ORTHOMODE
 70
     0
  9
$REGENMODE
 70
     1
  9
$FILLMODE
 70
     1
  9
$QTEXTMODE
 70
     0
  9
$MIRRTEXT
 70
     1
  9
$DRAGMODE
 70
     2
  9
$LTSCALE
 40
1.0
  9
$OSMODE
 70
    37
  9
$ATTMODE
 70
     1
  9
$TEXTSIZE
 40
0.2
  9
$TRACEWID
 40
0.05
  9
$TEXTSTYLE
  7
STANDARD
  9
$CLAYER
  8
0
  9
$CELTYPE
  6
BYLAYER
  9
$CECOLOR
 62
   256
  9
$CELTSCALE
 40
1.0
  9
$DELOBJ
 70
     1
  9
$DISPSILH
 70
     0
  9
$DIMSCALE
 40
1.0
  9
$DIMASZ
 40
2.5
  9
$DIMEXO
 40
0.0625
  9
$DIMDLI
 40
0.38
  9
$DIMRND
 40
0.0
  9
$DIMDLE
 40
0.0
  9
$DIMEXE
 40
0.18
  9
$DIMTP
 40
0.0
  9
$DIMTM
 40
0.0
  9
$DIMTXT
 40
0.18
  9
$DIMCEN
 40
0.09
  9
$DIMTSZ
 40
0.0
  9
$DIMTOL
 70
     0
  9
$DIMLIM
 70
     0
  9
$DIMTIH
 70
     1
  9
$DIMTOH
 70
     1
  9
$DIMSE1
 70
     0
  9
$DIMSE2
 70
     0
  9
$DIMTAD
 70
     3
  9
$DIMZIN
 70
     0
  9
$DIMBLK
  1

  9
$DIMASO
 70
     1
  9
$DIMSHO
 70
     1
  9
$DIMPOST
  1

  9
$DIMAPOST
  1

  9
$DIMALT
 70
     0
  9
$DIMALTD
 70
     2
  9
$DIMALTF
 40
25.4
  9
$DIMLFAC
 40
1.0
  9
$DIMTOFL
 70
     0
  9
$DIMTVP
 40
0.0
  9
$DIMTIX
 70
     0
  9
$DIMSOXD
 70
     0
  9
$DIMSAH
 70
     0
  9
$DIMBLK1
  1

  9
$DIMBLK2
  1

  9
$DIMSTYLE
  2
STANDARD
  9
$DIMCLRD
 70
     0
  9
$DIMCLRE
 70
     0
  9
$DIMCLRT
 70
     0
  9
$DIMTFAC
 40
1.0
  9
$DIMGAP
 40
0.09
  9
$DIMJUST
 70
     0
  9
$DIMSD1
 70
     0
  9
$DIMSD2
 70
     0
  9
$DIMTOLJ
 70
     1
  9
$DIMTZIN
 70
     0
  9
$DIMALTZ
 70
     0
  9
$DIMALTTZ
 70
     0
  9
$DIMFIT
 70
     3
  9
$DIMUPT
 70
     0
  9
$DIMUNIT
 70
     2
  9
$DIMDEC
 70
     4
  9
$DIMTDEC
 70
     4
  9
$DIMALTU
 70
     2
  9
$DIMALTTD
 70
     2
  9
$DIMTXSTY
  7
STANDARD
  9
$DIMAUNIT
 70
     0
  9
$LUNITS
 70
     2
  9
$LUPREC
 70
     4
  9
$SKETCHINC
 40
0.1
  9
$FILLETRAD
 40
0.5
  9
$AUNITS
 70
     0
  9
$AUPREC
 70
     0
  9
$MENU
  1
.
  9
$ELEVATION
 40
0.0
  9
$PELEVATION
 40
0.0
  9
$THICKNESS
 40
0.0
  9
$LIMCHECK
 70
     0
  9
$CHAMFERA
 40
0.5
  9
$CHAMFERB
 40
0.5
  9
$CHAMFERC
 40
1.0
  9
$CHAMFERD
 40
0.0
  9
$SKPOLY
 70
     0
  9
$TDCREATE
 40
2456274.477495544
  9
$TDUPDATE
 40
2456274.477495556
  9
$TDINDWG
 40
0.0000000116
  9
$TDUSRTIMER
 40
0.0000000116
  9
$USRTIMER
 70
     1
  9
$ANGBASE
 50
0.0
  9
$ANGDIR
 70
     0
  9
$PDMODE
 70
     0
  9
$PDSIZE
 40
1.0
  9
$PLINEWID
 40
0.0
  9
$COORDS
 70
     1
  9
$SPLFRAME
 70
     0
  9
$SPLINETYPE
 70
     6
  9
$SPLINESEGS
 70
     8
  9
$ATTDIA
 70
     0
  9
$ATTREQ
 70
     1
  9
$HANDLING
 70
     1
  9
$HANDSEED
  5
11F
  9
$SURFTAB1
 70
     6
  9
$SURFTAB2
 70
     6
  9
$SURFTYPE
 70
     6
  9
$SURFU
 70
     6
  9
$SURFV
 70
     6
  9
$UCSNAME
  2

  9
$UCSORG
 10
0.0
 20
0.0
 30
0.0
  9
$UCSXDIR
 10
1.0
 20
0.0
 30
0.0
  9
$UCSYDIR
 10
0.0
 20
1.0
 30
0.0
  9
$PUCSNAME
  2

  9
$PUCSORG
 10
0.0
 20
0.0
 30
0.0
  9
$PUCSXDIR
 10
1.0
 20
0.0
 30
0.0
  9
$PUCSYDIR
 10
0.0
 20
1.0
 30
0.0
  9
$USERI1
 70
     0
  9
$USERI2
 70
     0
  9
$USERI3
 70
     0
  9
$USERI4
 70
     0
  9
$USERI5
 70
     0
  9
$USERR1
 40
0.0
  9
$USERR2
 40
0.0
  9
$USERR3
 40
0.0
  9
$USERR4
 40
0.0
  9
$USERR5
 40
0.0
  9
$WORLDVIEW
 70
     1
  9
$SHADEDGE
 70
     3
  9
$SHADEDIF
 70
    70
  9
$TILEMODE
 70
     1
  9
$MAXACTVP
 70
    64
  9
$PINSBASE
 10
0.0
 20
0.0
 30
0.0
  9
$PLIMCHECK
 70
     0
  9
$PEXTMIN
 10
1.000000000000000E+20
 20
1.000000000000000E+20
 30
1.000000000000000E+20
  9
$PEXTMAX
 10
-1.000000000000000E+20
 20
-1.000000000000000E+20
 30
-1.000000000000000E+20
  9
$PLIMMIN
 10
0.0
 20
0.0
  9
$PLIMMAX
 10
12.0
 20
9.0
  9
$UNITMODE
 70
     0
  9
$VISRETAIN
 70
     0
  9
$PLINEGEN
 70
     1
  9
$PSLTSCALE
 70
     0
  9
$TREEDEPTH
 70
  3020
  9
$PICKSTYLE
 70
     1
  9
$CMLSTYLE
  2
STANDARD
  9
$CMLJUST
 70
     0
  9
$CMLSCALE
 40
1.0
  9
$PROXYGRAPHICS
 70
     0
  9
$MEASUREMENT
 70
     1
  0
ENDSEC
  0
SECTION
  2
CLASSES
  0
CLASS
  1
ACDBDICTIONARYWDFLT
  2
AcDbDictionaryWithDefault
  3
ObjectDBX Classes
 90
        0
280
     0
281
     0
  0
CLASS
  1
XRECORD
  2
AcDbXrecord
  3
AutoCAD 2000
 90
        0
280
     0
281
     0
  0
CLASS
  1
LWPOLYLINE
  2
AcDbPolyline
  3
AutoCAD 2000
 90
        0
280
     0
281
     1
  0
CLASS
  1
HATCH
  2
AcDbHatch
  3
AutoCAD 2000
 90
        0
280
     0
281
     1
  0
CLASS
  1
ACDBPLACEHOLDER
  2
AcDbPlaceHolder
  3
ObjectDBX Classes
 90
        0
280
     0
281
     0
  0
CLASS
  1
LAYOUT
  2
AcDbLayout
  3
ObjectDBX Classes
 90
        0
280
     0
281
     0
  0
ENDSEC
  0
SECTION
  2
TABLES
  0
TABLE
  2
VPORT
  5
8
330
0
100
AcDbSymbolTable
 70
     1
  0
VPORT
  5
29
330
8
100
AcDbSymbolTableRecord
100
AcDbViewportTableRecord
  2
*ACTIVE
 70
     0
 10
0.0
 20
0.0
 11
1.0
 21
1.0
 12
0.0
 22
0.0
 13
0.0
 23
0.0
 14
0.5
 24
0.5
 15
0.5
 25
0.5
 16
0.0
 26
0.0
 36
1.0
 17
-0.3987868519668361
 27
-1.325636029371651
 37
0.0
 40
70.94351299147724
 41
2.63110739959096
 42
50.0
 43
0.0
 44
0.0
 50
0.0
 51
0.0
 71
     0
 72
  1000
 73
     1
 74
     1
 75
     0
 76
     0
 77
     0
 78
     0
  0
ENDTAB
  0
TABLE
  2
LTYPE
  5
5
330
0
100
AcDbSymbolTable
 70
    28
  0
LTYPE
  5
14
330
5
100
AcDbSymbolTableRecord
100
AcDbLinetypeTableRecord
  2
BYBLOCK
 70
     0
  3

 72
    65
 73
     0
 40
0.0
  0
LTYPE
  5
15
330
5
100
AcDbSymbolTableRecord
100
AcDbLinetypeTableRecord
  2
BYLAYER
 70
     0
  3

 72
    65
 73
     0
 40
0.0
  0
LTYPE
  5
16
330
5
100
AcDbSymbolTableRecord
100
AcDbLinetypeTableRecord
  2
CONTINUOUS
 70
     0
  3
Solid line
 72
    65
 73
     0
 40
0.0
  0
LTYPE
  5
2B
330
5
100
AcDbSymbolTableRecord
100
AcDbLinetypeTableRecord
  2
HIDDENX2
 70
     0
  3
CADPAC LINETYPE
 72
    65
 73
     2
 40
4.320987654320959
 49
3.240740740740719
 74
     0
 49
-1.08024691358024
 74
     0
  0
LTYPE
  5
2C
330
5
100
AcDbSymbolTableRecord
100
AcDbLinetypeTableRecord
  2
HIDDEN
 70
     0
  3
CADPAC LINETYPE
 72
    65
 73
     2
 40
3.240740740740719
 49
2.160493827160479
 74
     0
 49
-1.08024691358024
 74
     0
  0
LTYPE
  5
2D
330
5
100
AcDbSymbolTableRecord
100
AcDbLinetypeTableRecord
  2
HIDDEN2
 70
     0
  3
CADPAC LINETYPE
 72
    65
 73
     2
 40
2.700617283950599
 49
1.62037037037036
 74
     0
 49
-1.08024691358024
 74
     0
  0
LTYPE
  5
2E
330
5
100
AcDbSymbolTableRecord
100
AcDbLinetypeTableRecord
  2
DASHED
 70
     0
  3
CADPAC LINETYPE
 72
    65
 73
     2
 40
3.024691358024683
 49
2.160493827160479
 74
     0
 49
-0.8641975308642032
 74
     0
  0
LTYPE
  5
2F
330
5
100
AcDbSymbolTableRecord
100
AcDbLinetypeTableRecord
  2
DASHED2
 70
     0
  3
CADPAC LINETYPE
 72
    65
 73
     2
 40
1.944444444444457
 49
1.296296296296305
 74
     0
 49
-0.6481481481481524
 74
     0
  0
LTYPE
  5
30
330
5
100
AcDbSymbolTableRecord
100
AcDbLinetypeTableRecord
  2
DASHEDX2
 70
     0
  3
CADPAC LINETYPE
 72
    65
 73
     2
 40
5.185185185185219
 49
4.320987654321016
 74
     0
 49
-0.8641975308642032
 74
     0
  0
LTYPE
  5
31
330
5
100
AcDbSymbolTableRecord
100
AcDbLinetypeTableRecord
  2
DOTX2
 70
     0
  3
CADPAC LINETYPE
 72
    65
 73
     2
 40
1.890432098765444
 49
0.0
 74
     0
 49
-1.890432098765444
 74
     0
  0
LTYPE
  5
32
330
5
100
AcDbSymbolTableRecord
100
AcDbLinetypeTableRecord
  2
DOT
 70
     0
  3
CADPAC LINETYPE
 72
    65
 73
     2
 40
1.512345679012356
 49
0.0
 74
     0
 49
-1.512345679012356
 74
     0
  0
LTYPE
  5
33
330
5
100
AcDbSymbolTableRecord
100
AcDbLinetypeTableRecord
  2
DOT2
 70
     0
  3
CADPAC LINETYPE
 72
    65
 73
     2
 40
1.134259259259267
 49
0.0
 74
     0
 49
-1.134259259259267
 74
     0
  0
LTYPE
  5
34
330
5
100
AcDbSymbolTableRecord
100
AcDbLinetypeTableRecord
  2
CENTERX2
 70
     0
  3
CADPAC LINETYPE
 72
    65
 73
     4
 40
6.481481481481438
 49
2.700617283950599
 74
     0
 49
-1.3503086419753
 74
     0
 49
1.08024691358024
 74
     0
 49
-1.3503086419753
 74
     0
  0
LTYPE
  5
35
330
5
100
AcDbSymbolTableRecord
100
AcDbLinetypeTableRecord
  2
CENTER
 70
     0
  3
CADPAC LINETYPE
 72
    65
 73
     4
 40
4.969135802469102
 49
2.160493827160479
 74
     0
 49
-1.08024691358024
 74
     0
 49
0.6481481481481438
 74
     0
 49
-1.08024691358024
 74
     0
  0
LTYPE
  5
36
330
5
100
AcDbSymbolTableRecord
100
AcDbLinetypeTableRecord
  2
CENTER2
 70
     0
  3
CADPAC LINETYPE
 72
    65
 73
     4
 40
3.456790123456767
 49
1.62037037037036
 74
     0
 49
-0.8101851851851798
 74
     0
 49
0.216049382716048
 74
     0
 49
-0.8101851851851798
 74
     0
  0
LTYPE
  5
37
330
5
100
AcDbSymbolTableRecord
100
AcDbLinetypeTableRecord
  2
DASHDOTX2
 70
     0
  3
CADPAC LINETYPE
 72
    65
 73
     4
 40
10.37037037037032
 49
5.18518518518519
 74
     0
 49
-1.728395061728378
 74
     0
 49
1.728395061728378
 74
     0
 49
-1.728395061728378
 74
     0
  0
LTYPE
  5
38
330
5
100
AcDbSymbolTableRecord
100
AcDbLinetypeTableRecord
  2
DASHDOT
 70
     0
  3
CADPAC LINETYPE
 72
    65
 73
     4
 40
5.185185185185219
 49
2.592592592592609
 74
     0
 49
-0.8641975308642032
 74
     0
 49
0.8641975308642032
 74
     0
 49
-0.8641975308642032
 74
     0
  0
LTYPE
  5
39
330
5
100
AcDbSymbolTableRecord
100
AcDbLinetypeTableRecord
  2
DASHDOT2
 70
     0
  3
CADPAC LINETYPE
 72
    65
 73
     4
 40
3.327160493827182
 49
1.944444444444457
 74
     0
 49
-0.6481481481481524
 74
     0
 49
0.0864197530864203
 74
     0
 49
-0.6481481481481524
 74
     0
  0
LTYPE
  5
3A
330
5
100
AcDbSymbolTableRecord
100
AcDbLinetypeTableRecord
  2
DIVIDEX2
 70
     0
  3
CADPAC LINETYPE
 72
    65
 73
     6
 40
13.82716049382708
 49
5.18518518518519
 74
     0
 49
-1.728395061728378
 74
     0
 49
1.728395061728378
 74
     0
 49
-1.728395061728378
 74
     0
 49
1.728395061728378
 74
     0
 49
-1.728395061728378
 74
     0
  0
LTYPE
  5
3B
330
5
100
AcDbSymbolTableRecord
100
AcDbLinetypeTableRecord
  2
DIVIDE
 70
     0
  3
CADPAC LINETYPE
 72
    65
 73
     6
 40
6.913580246913625
 49
2.592592592592609
 74
     0
 49
-0.8641975308642032
 74
     0
 49
0.8641975308642032
 74
     0
 49
-0.8641975308642032
 74
     0
 49
0.8641975308642032
 74
     0
 49
-0.8641975308642032
 74
     0
  0
LTYPE
  5
3C
330
5
100
AcDbSymbolTableRecord
100
AcDbLinetypeTableRecord
  2
DIVIDE2
 70
     0
  3
CADPAC LINETYPE
 72
    65
 73
     6
 40
5.185185185185219
 49
1.944444444444457
 74
     0
 49
-0.6481481481481524
 74
     0
 49
0.6481481481481524
 74
     0
 49
-0.6481481481481524
 74
     0
 49
0.6481481481481524
 74
     0
 49
-0.6481481481481524
 74
     0
  0
LTYPE
  5
3D
330
5
100
AcDbSymbolTableRecord
100
AcDbLinetypeTableRecord
  2
BORDERX2
 70
     0
  3
CADPAC LINETYPE
 72
    65
 73
     6
 40
9.452160493827098
 49
2.700617283950599
 74
     0
 49
-1.3503086419753
 74
     0
 49
2.700617283950599
 74
     0
 49
-1.3503086419753
 74
     0
 49
0.0
 74
     0
 49
-1.3503086419753
 74
     0
  0
LTYPE
  5
3E
330
5
100
AcDbSymbolTableRecord
100
AcDbLinetypeTableRecord
  2
BORDER
 70
     0
  3
CADPAC LINETYPE
 72
    65
 73
     6
 40
7.561728395061678
 49
2.160493827160479
 74
     0
 49
-1.08024691358024
 74
     0
 49
2.160493827160479
 74
     0
 49
-1.08024691358024
 74
     0
 49
0.0
 74
     0
 49
-1.08024691358024
 74
     0
  0
LTYPE
  5
3F
330
5
100
AcDbSymbolTableRecord
100
AcDbLinetypeTableRecord
  2
BORDER2
 70
     0
  3
CADPAC LINETYPE
 72
    65
 73
     6
 40
5.617283950617221
 49
1.728395061728378
 74
     0
 49
-1.080246913580226
 74
     0
 49
0.6481481481481524
 74
     0
 49
-1.080246913580226
 74
     0
 49
0.0
 74
     0
 49
-1.08024691358024
 74
     0
  0
LTYPE
  5
40
330
5
100
AcDbSymbolTableRecord
100
AcDbLinetypeTableRecord
  2
PHANTOMX2
 70
     0
  3
CADPAC LINETYPE
 72
    65
 73
     6
 40
8.101851851851798
 49
2.700617283950599
 74
     0
 49
-1.08024691358024
 74
     0
 49
1.08024691358024
 74
     0
 49
-1.08024691358024
 74
     0
 49
1.08024691358024
 74
     0
 49
-1.08024691358024
 74
     0
  0
LTYPE
  5
41
330
5
100
AcDbSymbolTableRecord
100
AcDbLinetypeTableRecord
  2
PHANTOM
 70
     0
  3
CADPAC LINETYPE
 72
    65
 73
     6
 40
6.697530864197486
 49
2.160493827160479
 74
     0
 49
-1.08024691358024
 74
     0
 49
0.6481481481481438
 74
     0
 49
-1.08024691358024
 74
     0
 49
0.6481481481481438
 74
     0
 49
-1.08024691358024
 74
     0
  0
LTYPE
  5
42
330
5
100
AcDbSymbolTableRecord
100
AcDbLinetypeTableRecord
  2
PHANTOM2
 70
     0
  3
CADPAC LINETYPE
 72
    65
 73
     6
 40
5.725308641975271
 49
1.62037037037036
 74
     0
 49
-1.08024691358024
 74
     0
 49
0.4320987654320959
 74
     0
 49
-1.08024691358024
 74
     0
 49
0.4320987654320959
 74
     0
 49
-1.08024691358024
 74
     0
  0
LTYPE
  5
43
330
5
100
AcDbSymbolTableRecord
100
AcDbLinetypeTableRecord
  2
ACAD_ISO06W100
 70
     0
  3
CADPAC LINETYPE
 72
    65
 73
     8
 40
11.45061728395055
 49
5.18518518518519
 74
     0
 49
-1.080246913580226
 74
     0
 49
0.6481481481481524
 74
     0
 49
-1.080246913580226
 74
     0
 49
0.6481481481481524
 74
     0
 49
-1.080246913580226
 74
     0
 49
0.6481481481481524
 74
     0
 49
-1.080246913580226
 74
     0
  0
LTYPE
  5
44
330
5
100
AcDbSymbolTableRecord
100
AcDbLinetypeTableRecord
  2
ACAD_ISO13W100
 70
     0
  3
CADPAC LINETYPE
 72
    65
 73
     8
 40
8.641975308641918
 49
2.160493827160479
 74
     0
 49
-1.08024691358024
 74
     0
 49
2.160493827160479
 74
     0
 49
-1.08024691358024
 74
     0
 49
0.0
 74
     0
 49
-1.08024691358024
 74
     0
 49
0.0
 74
     0
 49
-1.08024691358024
 74
     0
  0
LTYPE
  5
45
330
5
100
AcDbSymbolTableRecord
100
AcDbLinetypeTableRecord
  2
ACAD_ISO14W100
 70
     0
  3
CADPAC LINETYPE
 72
    65
 73
     8
 40
6.481481481481438
 49
2.160493827160479
 74
     0
 49
-1.08024691358024
 74
     0
 49
0.0
 74
     0
 49
-1.08024691358024
 74
     0
 49
0.0
 74
     0
 49
-1.08024691358024
 74
     0
 49
0.0
 74
     0
 49
-1.08024691358024
 74
     0
  0
ENDTAB
  0
TABLE
  2
LAYER
  5
2
330
0
100
AcDbSymbolTable
 70
     1
  0
LAYER
  5
10
330
2
100
AcDbSymbolTableRecord
100
AcDbLayerTableRecord
  2
0
 70
     0
 62
     7
  6
CONTINUOUS
  0
ENDTAB
  0
TABLE
  2
STYLE
  5
3
330
0
100
AcDbSymbolTable
 70
     2
  0
STYLE
  5
11
330
3
100
AcDbSymbolTableRecord
100
AcDbTextStyleTableRecord
  2
STANDARD
 70
     0
 40
0.0
 41
1.0
 50
0.0
 71
     0
 42
0.2
  3
txt
  4

  0
STYLE
  5
59
330
3
100
AcDbSymbolTableRecord
100
AcDbTextStyleTableRecord
  2
FDASTYLE0
 70
     0
 40
4.0
 41
0.6857142857142858
 50
0.0
 71
     0
 42
0.2
  3
txt.shx
  4
bigfont
  0
ENDTAB
  0
TABLE
  2
VIEW
  5
6
330
0
100
AcDbSymbolTable
 70
     0
  0
ENDTAB
  0
TABLE
  2
UCS
  5
7
330
0
100
AcDbSymbolTable
 70
     0
  0
ENDTAB
  0
TABLE
  2
APPID
  5
9
330
0
100
AcDbSymbolTable
 70
     2
  0
APPID
  5
12
330
9
100
AcDbSymbolTableRecord
100
AcDbRegAppTableRecord
  2
ACAD
 70
     0
  0
APPID
  5
2A
330
9
100
AcDbSymbolTableRecord
100
AcDbRegAppTableRecord
  2
DAFUSIONOUT
 70
     0
  0
ENDTAB
  0
TABLE
  2
DIMSTYLE
  5
A
330
0
100
AcDbSymbolTable
 70
     1
  0
DIMSTYLE
105
27
330
A
100
AcDbSymbolTableRecord
100
AcDbDimStyleTableRecord
  2
STANDARD
 70
     0
  3

  4

  5

  6

  7

 40
1.0
 41
0.18
 42
0.0625
 43
0.38
 44
0.18
 45
0.0
 46
0.0
 47
0.0
 48
0.0
140
0.18
141
0.09
142
0.0
143
25.4
144
1.0
145
0.0
146
1.0
147
0.09
 71
     0
 72
     0
 73
     1
 74
     1
 75
     0
 76
     0
 77
     0
 78
     0
170
     0
171
     2
172
     0
173
     0
174
     0
175
     0
176
     0
177
     0
178
     0
270
     2
271
     4
272
     4
273
     2
274
     2
340
11
275
     0
280
     0
281
     0
282
     0
283
     1
284
     0
285
     0
286
     0
287
     3
288
     0
  0
ENDTAB
  0
TABLE
  2
BLOCK_RECORD
  5
1
330
0
100
AcDbSymbolTable
 70
     5
  0
BLOCK_RECORD
  5
1F
330
1
100
AcDbSymbolTableRecord
100
AcDbBlockTableRecord
  2
*MODEL_SPACE
  0
BLOCK_RECORD
  5
1B
330
1
100
AcDbSymbolTableRecord
100
AcDbBlockTableRecord
  2
*PAPER_SPACE
  0
BLOCK_RECORD
  5
47
330
1
100
AcDbSymbolTableRecord
100
AcDbBlockTableRecord
  2
DC_GROUP_1
  0
BLOCK_RECORD
  5
4A
330
1
100
AcDbSymbolTableRecord
100
AcDbBlockTableRecord
  2
DC_GROUP_2
  0
BLOCK_RECORD
  5
4D
330
1
100
AcDbSymbolTableRecord
100
AcDbBlockTableRecord
  2
DC_GROUP_3
  0
BLOCK_RECORD
  5
51
330
1
100
AcDbSymbolTableRecord
100
AcDbBlockTableRecord
  2
_OPEN30
  0
ENDTAB
  0
ENDSEC
  0
SECTION
  2
BLOCKS
  0
BLOCK
  5
20
330
1F
100
AcDbEntity
  8
0
100
AcDbBlockBegin
  2
*MODEL_SPACE
 70
     0
 71
     0
 10
0.0
 20
0.0
 30
0.0
  3
*MODEL_SPACE
  1

  0
ENDBLK
  5
21
330
1F
100
AcDbEntity
  8
0
100
AcDbBlockEnd
  0
BLOCK
  5
1C
330
1B
100
AcDbEntity
 67
     1
  8
0
100
AcDbBlockBegin
  2
*PAPER_SPACE
 70
     0
 71
     0
 10
0.0
 20
0.0
 30
0.0
  3
*PAPER_SPACE
  1

  0
ENDBLK
  5
1D
330
1B
100
AcDbEntity
 67
     1
  8
0
100
AcDbBlockEnd
  0
BLOCK
  5
48
330
47
100
AcDbEntity
  8
0
100
AcDbBlockBegin
  2
DC_GROUP_1
 70
     0
 71
     0
 10
0.0
 20
0.0
 30
0.0
  3
DC_GROUP_1
  1

  0
LINE
  5
50
330
47
100
AcDbEntity
  8
0
  6
CONTINUOUS
 62
     9
100
AcDbLine
 10
21.91920162344614
 20
4.970595829195634
 30
0.0
 11
27.06899141212647
 21
17.45059582919562
 31
0.0
  0
INSERT
  5
57
330
47
100
AcDbEntity
  8
0
 62
     9
100
AcDbBlockReference
  2
_OPEN30
 10
21.91920162344614
 20
4.970595829195634
 30
0.0
 41
3.000002787824364
 42
2.999989273978464
 50
247.576830792855
  0
LINE
  5
58
330
47
100
AcDbEntity
  8
0
  6
CONTINUOUS
 62
     9
100
AcDbLine
 10
27.06899141212647
 20
17.45059582919562
 30
0.0
 11
46.26899141212647
 21
17.45059582919562
 31
0.0
  0
TEXT
  5
5A
330
47
100
AcDbEntity
  8
0
 62
     7
100
AcDbText
 10
27.06899141212647
 20
18.45059582919562
 30
0.0
 40
4.0
  1
（+）ＲＥＤ
 41
0.6857142857142858
  7
FDASTYLE0
 72
     5
 11
46.26899141212647
 21
18.45059582919562
 31
0.0
100
AcDbText
  0
ENDBLK
  5
49
330
47
100
AcDbEntity
  8
0
100
AcDbBlockEnd
  0
BLOCK
  5
4B
330
4A
100
AcDbEntity
  8
0
100
AcDbBlockBegin
  2
DC_GROUP_2
 70
     0
 71
     0
 10
0.0
 20
0.0
 30
0.0
  3
DC_GROUP_2
  1

  0
LINE
  5
5B
330
4A
100
AcDbEntity
  8
0
  6
CONTINUOUS
 62
     9
100
AcDbLine
 10
21.91920162344614
 20
-10.06940417080437
 30
0.0
 11
27.06899141212647
 21
-22.54940417080436
 31
0.0
  0
INSERT
  5
5C
330
4A
100
AcDbEntity
  8
0
 62
     9
100
AcDbBlockReference
  2
_OPEN30
 10
21.91920162344614
 20
-10.06940417080437
 30
0.0
 41
3.000002787824364
 42
2.999989273978464
 50
112.423169207145
  0
LINE
  5
5D
330
4A
100
AcDbEntity
  8
0
  6
CONTINUOUS
 62
     9
100
AcDbLine
 10
27.06899141212647
 20
-22.54940417080436
 30
0.0
 11
52.66899141212647
 21
-22.54940417080436
 31
0.0
  0
TEXT
  5
5E
330
4A
100
AcDbEntity
  8
0
 62
     7
100
AcDbText
 10
27.06899141212647
 20
-21.54940417080436
 30
0.0
 40
4.0
  1
（-）ＢＬＡＣＫ
 41
0.6808510638297872
  7
FDASTYLE0
 72
     5
 11
52.66899141212647
 21
-21.54940417080436
 31
0.0
100
AcDbText
  0
ENDBLK
  5
4C
330
4A
100
AcDbEntity
  8
0
100
AcDbBlockEnd
  0
BLOCK
  5
4E
330
4D
100
AcDbEntity
  8
0
100
AcDbBlockBegin
  2
DC_GROUP_3
 70
     0
 71
     0
 10
0.0
 20
0.0
 30
0.0
  3
DC_GROUP_3
  1

  0
LINE
  5
5F
330
4D
100
AcDbEntity
  8
0
  6
CONTINUOUS
 62
     9
100
AcDbLine
 10
-20.02498956494831
 20
-8.049404170804376
 30
0.0
 11
-30.54878858787351
 21
-22.54940417080438
 31
0.0
  0
INSERT
  5
60
330
4D
100
AcDbEntity
  8
0
 62
     9
100
AcDbBlockReference
  2
_OPEN30
 10
-20.02498956494831
 20
-8.049404170804376
 30
0.0
 41
3.000002787824364
 42
2.999989273978464
 50
54.02863401845231
  0
LINE
  5
61
330
4D
100
AcDbEntity
  8
0
  6
CONTINUOUS
 62
     9
100
AcDbLine
 10
-30.54878858787351
 20
-22.54940417080438
 30
0.0
 11
-65.74878858787351
 21
-22.54940417080438
 31
0.0
  0
TEXT
  5
62
330
4D
100
AcDbEntity
  8
0
 62
     7
100
AcDbText
 10
-65.74878858787351
 20
-21.54940417080438
 30
0.0
 40
4.0
  1
Ｍ5.5（Ｐ＝0.5）
 41
0.7333333333333334
  7
FDASTYLE0
 72
     5
 11
-30.5487885878735
 21
-21.54940417080438
 31
0.0
100
AcDbText
  0
ENDBLK
  5
4F
330
4D
100
AcDbEntity
  8
0
100
AcDbBlockEnd
  0
BLOCK
  5
52
330
51
100
AcDbEntity
  8
0
100
AcDbBlockBegin
  2
_OPEN30
 70
     0
 71
     0
 10
0.0
 20
0.0
 30
0.0
  3
_OPEN30
  1

  0
LINE
  5
54
330
51
100
AcDbEntity
  8
0
  6
BYBLOCK
 62
     0
100
AcDbLine
 10
-1.0
 20
0.267949
 30
0.0
 11
0.0
 21
0.0
 31
0.0
  0
LINE
  5
55
330
51
100
AcDbEntity
  8
0
  6
BYBLOCK
 62
     0
100
AcDbLine
 10
0.0
 20
0.0
 30
0.0
 11
-1.0
 21
-0.267949
 31
0.0
  0
LINE
  5
56
330
51
100
AcDbEntity
  8
0
  6
BYBLOCK
 62
     0
100
AcDbLine
 10
0.0
 20
0.0
 30
0.0
 11
-1.0
 21
0.0
 31
0.0
  0
ENDBLK
  5
53
330
51
100
AcDbEntity
  8
0
100
AcDbBlockEnd
  0
ENDSEC
  0
SECTION
  2
ENTITIES
  0
LINE
  5
63
330
1F
100
AcDbEntity
  8
0
  6
CENTER
 62
     9
100
AcDbLine
 10
-26.34878858787351
 20
-2.549404170804376
 30
0.0
 11
19.25121141212647
 21
-2.549404170804376
 31
0.0
  0
LINE
  5
64
330
1F
100
AcDbEntity
  8
0
  6
CENTER
 62
     9
100
AcDbLine
 10
-79.89878782493406
 20
9.450595829195624
 30
0.0
 11
-79.89878782493406
 21
-14.54940417080438
 31
0.0
  0
LINE
  5
65
330
1F
100
AcDbEntity
  8
0
  6
CENTER
 62
     9
100
AcDbLine
 10
-91.89878782493406
 20
-2.549404170804376
 30
0.0
 11
-67.89878782493406
 21
-2.549404170804376
 31
0.0
  0
LINE
  5
66
330
1F
100
AcDbEntity
  8
0
  6
CENTER
 62
     9
100
AcDbLine
 10
67.1012141210004
 20
-2.549413297852009
 30
0.0
 11
91.1012141210004
 21
-2.549413297852009
 31
0.0
  0
LINE
  5
67
330
1F
100
AcDbEntity
  8
0
  6
CENTER
 62
     9
100
AcDbLine
 10
79.1012141210004
 20
9.450586702147991
 30
0.0
 11
79.1012141210004
 21
-14.54941329785201
 31
0.0
  0
LINE
  5
68
330
1F
100
AcDbEntity
  8
0
  6
CENTER
 62
     9
100
AcDbLine
 10
77.2049284033784
 20
4.051009717347956
 30
0.0
 11
80.96227001912627
 21
4.051009717347956
 31
0.0
  0
LINE
  5
69
330
1F
100
AcDbEntity
  8
0
  6
CENTER
 62
     9
100
AcDbLine
 10
77.2049284033784
 20
-9.15034864011211
 30
0.0
 11
80.96227001912627
 21
-9.15034864011211
 31
0.0
  0
LINE
  5
6A
330
1F
100
AcDbEntity
  8
0
  6
CONTINUOUS
 62
     9
100
AcDbLine
 10
-18.54878858787354
 20
2.450595829195624
 30
0.0
 11
-21.14878858787353
 21
2.450595829195624
 31
0.0
  0
LINE
  5
6B
330
1F
100
AcDbEntity
  8
0
  6
CONTINUOUS
 62
     9
100
AcDbLine
 10
-18.54878858787354
 20
-7.549404170804376
 30
0.0
 11
-21.14878858787353
 21
-7.549404170804376
 31
0.0
  0
LINE
  5
6C
330
1F
100
AcDbEntity
  8
0
  6
CONTINUOUS
 62
     9
100
AcDbLine
 10
31.53343786587874
 20
1.869826419402262
 30
0.0
 11
35.7473313354601
 21
6.083719888983627
 31
0.0
  0
LINE
  5
6D
330
1F
100
AcDbEntity
  8
0
  6
CONTINUOUS
 62
     9
100
AcDbLine
 10
32.94765142825183
 20
1.869826419402262
 30
0.0
 11
37.16154489783319
 21
6.083719888983627
 31
0.0
  0
LINE
  5
6E
330
1F
100
AcDbEntity
  8
0
  6
CONTINUOUS
 62
     9
100
AcDbLine
 10
31.53343786587874
 20
-11.33017358059774
 30
0.0
 11
35.7473313354601
 21
-7.116280111016376
 31
0.0
  0
LINE
  5
6F
330
1F
100
AcDbEntity
  8
0
  6
CONTINUOUS
 62
     9
100
AcDbLine
 10
32.94765142825183
 20
-11.33017358059774
 30
0.0
 11
37.16154489783319
 21
-7.116280111016376
 31
0.0
  0
LINE
  5
70
330
1F
100
AcDbEntity
  8
0
  6
CONTINUOUS
 62
     3
100
AcDbLine
 10
16.25121141212647
 20
-11.949413297852
 30
0.0
 11
16.25121141212647
 21
7.450595829195624
 31
0.0
  0
LINE
  5
71
330
1F
100
AcDbEntity
  8
0
  6
CONTINUOUS
 62
     3
100
AcDbLine
 10
16.25121141212647
 20
6.250595829195621
 30
0.0
 11
16.95121141212647
 21
6.250595829195621
 31
0.0
  0
LINE
  5
72
330
1F
100
AcDbEntity
  8
0
  6
CONTINUOUS
 62
     3
100
AcDbLine
 10
16.25121141212647
 20
-11.34940417080437
 30
0.0
 11
16.95121141212647
 21
-11.34940417080437
 31
0.0
  0
LINE
  5
73
330
1F
100
AcDbEntity
  8
0
  6
CONTINUOUS
 62
     3
100
AcDbLine
 10
17.25121141212647
 20
5.950595829195624
 30
0.0
 11
16.95121141212647
 21
6.250595829195621
 31
0.0
  0
LINE
  5
74
330
1F
100
AcDbEntity
  8
0
  6
CONTINUOUS
 62
     3
100
AcDbLine
 10
17.25121141212647
 20
-11.04940417080438
 30
0.0
 11
16.95121141212647
 21
-11.34940417080437
 31
0.0
  0
LINE
  5
75
330
1F
100
AcDbEntity
  8
0
  6
CONTINUOUS
 62
     3
100
AcDbLine
 10
16.95121141212647
 20
-11.34940417080437
 30
0.0
 11
16.95121141212647
 21
6.250595829195621
 31
0.0
  0
LINE
  5
76
330
1F
100
AcDbEntity
  8
0
  6
CONTINUOUS
 62
     3
100
AcDbLine
 10
-16.54878858787353
 20
7.450595829195624
 30
0.0
 11
16.25121141212647
 21
7.450595829195624
 31
0.0
  0
LINE
  5
77
330
1F
100
AcDbEntity
  8
0
  6
CONTINUOUS
 62
     3
100
AcDbLine
 10
16.25121141212647
 20
-12.54940417080438
 30
0.0
 11
-16.54878858787353
 21
-12.54940417080438
 31
0.0
  0
LINE
  5
78
330
1F
100
AcDbEntity
  8
0
  6
CONTINUOUS
 62
     3
100
AcDbLine
 10
-16.54878858787353
 20
7.450595829195624
 30
0.0
 11
-16.74878858787353
 21
7.250595829195635
 31
0.0
  0
LINE
  5
79
330
1F
100
AcDbEntity
  8
0
  6
CONTINUOUS
 62
     3
100
AcDbLine
 10
-16.54878858787353
 20
-12.54940417080438
 30
0.0
 11
-16.74878858787353
 21
-12.34940417080439
 31
0.0
  0
LINE
  5
7A
330
1F
100
AcDbEntity
  8
0
  6
CONTINUOUS
 62
     3
100
AcDbLine
 10
16.25121141212647
 20
-12.54940417080438
 30
0.0
 11
16.25121141212647
 21
-2.549404170804376
 31
0.0
  0
LINE
  5
7B
330
1F
100
AcDbEntity
  8
0
  6
CONTINUOUS
 62
     3
100
AcDbLine
 10
-16.74878858787353
 20
7.250595829195635
 30
0.0
 11
-16.74878858787353
 21
-12.34940417080439
 31
0.0
  0
LINE
  5
7C
330
1F
100
AcDbEntity
  8
0
  6
CONTINUOUS
 62
     3
100
AcDbLine
 10
-23.94878858787352
 20
-3.549404170804376
 30
0.0
 11
-21.94878858787353
 21
-3.549404170804376
 31
0.0
  0
ARC
  5
7D
330
1F
100
AcDbEntity
  8
0
  6
CONTINUOUS
 62
     3
100
AcDbCircle
 10
-23.94878858787352
 20
-3.14940417080437
 30
0.0
 40
0.4
100
AcDbArc
 50
180.0
 51
270.0
  0
LINE
  5
7E
330
1F
100
AcDbEntity
  8
0
  6
CONTINUOUS
 62
     3
100
AcDbLine
 10
17.25121141212647
 20
-11.04940417080438
 30
0.0
 11
17.25121141212647
 21
5.950595829195624
 31
0.0
  0
LINE
  5
7F
330
1F
100
AcDbEntity
  8
0
  6
CONTINUOUS
 62
     3
100
AcDbLine
 10
-17.54878858787353
 20
3.445738709787111
 30
0.0
 11
-16.74878858787353
 21
3.445738709787111
 31
0.0
  0
LINE
  5
80
330
1F
100
AcDbEntity
  8
0
  6
CONTINUOUS
 62
     3
100
AcDbLine
 10
-21.14878858787353
 20
2.950595829195624
 30
0.0
 11
-18.54878858787354
 21
2.950595829195624
 31
0.0
  0
LINE
  5
81
330
1F
100
AcDbEntity
  8
0
  6
CONTINUOUS
 62
     3
100
AcDbLine
 10
-17.54878858787353
 20
3.445738709787111
 30
0.0
 11
-17.74878858787353
 21
3.245738709787123
 31
0.0
  0
LINE
  5
82
330
1F
100
AcDbEntity
  8
0
  6
CONTINUOUS
 62
     3
100
AcDbLine
 10
-17.74878858787353
 20
2.450595829195624
 30
0.0
 11
-18.54878858787354
 21
2.450595829195624
 31
0.0
  0
LINE
  5
83
330
1F
100
AcDbEntity
  8
0
  6
CONTINUOUS
 62
     3
100
AcDbLine
 10
-17.54878858787353
 20
-8.544547051395863
 30
0.0
 11
-16.74878858787353
 21
-8.544547051395863
 31
0.0
  0
LINE
  5
84
330
1F
100
AcDbEntity
  8
0
  6
CONTINUOUS
 62
     3
100
AcDbLine
 10
-21.14878858787353
 20
-8.049404170804376
 30
0.0
 11
-18.54878858787354
 21
-8.049404170804376
 31
0.0
  0
LINE
  5
85
330
1F
100
AcDbEntity
  8
0
  6
CONTINUOUS
 62
     3
100
AcDbLine
 10
-18.54878858787354
 20
2.950595829195624
 30
0.0
 11
-18.54878858787354
 21
-8.049404170804376
 31
0.0
  0
LINE
  5
86
330
1F
100
AcDbEntity
  8
0
  6
CONTINUOUS
 62
     3
100
AcDbLine
 10
-17.54878858787353
 20
-8.544547051395863
 30
0.0
 11
-17.74878858787353
 21
-8.34454705139586
 31
0.0
  0
LINE
  5
87
330
1F
100
AcDbEntity
  8
0
  6
CONTINUOUS
 62
     3
100
AcDbLine
 10
-17.74878858787353
 20
3.245738709787123
 30
0.0
 11
-17.74878858787353
 21
-8.34454705139586
 31
0.0
  0
LINE
  5
88
330
1F
100
AcDbEntity
  8
0
  6
CONTINUOUS
 62
     3
100
AcDbLine
 10
-17.74878858787353
 20
-7.549404170804376
 30
0.0
 11
-18.54878858787354
 21
-7.549404170804376
 31
0.0
  0
LINE
  5
89
330
1F
100
AcDbEntity
  8
0
  6
CONTINUOUS
 62
     3
100
AcDbLine
 10
-21.14878858787353
 20
-8.049404170804376
 30
0.0
 11
-21.14878858787353
 21
-2.549404170804376
 31
0.0
  0
LINE
  5
8A
330
1F
100
AcDbEntity
  8
0
  6
CONTINUOUS
 62
     3
100
AcDbLine
 10
-21.14878858787353
 20
-2.549404170804376
 30
0.0
 11
-21.14878858787353
 21
2.950595829195624
 31
0.0
  0
LINE
  5
8B
330
1F
100
AcDbEntity
  8
0
  6
CONTINUOUS
 62
     3
100
AcDbLine
 10
-23.94878858787352
 20
-1.54940417080439
 30
0.0
 11
-21.94878858787353
 21
-1.549404170804376
 31
0.0
  0
LINE
  5
8C
330
1F
100
AcDbEntity
  8
0
  6
CONTINUOUS
 62
     3
100
AcDbLine
 10
-24.34878858787351
 20
-1.949404170804382
 30
0.0
 11
-24.34878858787351
 21
-3.14940417080437
 31
0.0
  0
ARC
  5
8D
330
1F
100
AcDbEntity
  8
0
  6
CONTINUOUS
 62
     3
100
AcDbCircle
 10
-23.94878858787352
 20
-1.949404170804382
 30
0.0
 40
0.4
100
AcDbArc
 50
90.0
 51
180.0
  0
LINE
  5
8E
330
1F
100
AcDbEntity
  8
0
  6
CONTINUOUS
 62
     3
100
AcDbLine
 10
-21.14878858787353
 20
-5.14940417080437
 30
0.0
 11
-21.34878858787354
 21
-5.14940417080437
 31
0.0
  0
LINE
  5
8F
330
1F
100
AcDbEntity
  8
0
  6
CONTINUOUS
 62
     3
100
AcDbLine
 10
-21.34878858787354
 20
0.0505958291956325
 30
0.0
 11
-21.34878858787354
 21
-5.14940417080437
 31
0.0
  0
LINE
  5
90
330
1F
100
AcDbEntity
  8
0
  6
CONTINUOUS
 62
     3
100
AcDbLine
 10
-21.14878858787353
 20
0.0505958291956325
 30
0.0
 11
-21.94878858787353
 21
0.0505958291956325
 31
0.0
  0
LINE
  5
91
330
1F
100
AcDbEntity
  8
0
  6
CONTINUOUS
 62
     3
100
AcDbLine
 10
-21.34878858787354
 20
-5.14940417080437
 30
0.0
 11
-21.94878858787353
 21
-5.14940417080437
 31
0.0
  0
LINE
  5
92
330
1F
100
AcDbEntity
  8
0
  6
CONTINUOUS
 62
     3
100
AcDbLine
 10
-21.94878858787353
 20
0.0505958291956325
 30
0.0
 11
-21.94878858787353
 21
-5.14940417080437
 31
0.0
  0
CIRCLE
  5
93
330
1F
100
AcDbEntity
  8
0
  6
CONTINUOUS
 62
     3
100
AcDbCircle
 10
-79.89878782493406
 20
-2.549404170804376
 30
0.0
 40
10.0
  0
CIRCLE
  5
94
330
1F
100
AcDbEntity
  8
0
  6
CONTINUOUS
 62
     3
100
AcDbCircle
 10
-79.89878782493406
 20
-2.549404170804376
 30
0.0
 40
9.0
  0
CIRCLE
  5
95
330
1F
100
AcDbEntity
  8
0
  6
CONTINUOUS
 62
     3
100
AcDbCircle
 10
-79.89878782493406
 20
-2.549404170804376
 30
0.0
 40
3.5
  0
CIRCLE
  5
96
330
1F
100
AcDbEntity
  8
0
  6
CONTINUOUS
 62
     3
100
AcDbCircle
 10
-79.89878782493406
 20
-2.549404170804376
 30
0.0
 40
2.8
  0
CIRCLE
  5
97
330
1F
100
AcDbEntity
  8
0
  6
CONTINUOUS
 62
     3
100
AcDbCircle
 10
-79.89878782493406
 20
-2.549404170804376
 30
0.0
 40
6.0
  0
CIRCLE
  5
98
330
1F
100
AcDbEntity
  8
0
  6
CONTINUOUS
 62
     3
100
AcDbCircle
 10
-79.89878782493406
 20
-2.549404170804376
 30
0.0
 40
5.5
  0
CIRCLE
  5
99
330
1F
100
AcDbEntity
  8
0
  6
CONTINUOUS
 62
     3
100
AcDbCircle
 10
-79.89878782493406
 20
-2.549404170804376
 30
0.0
 40
1.0
  0
LINE
  5
9A
330
1F
100
AcDbEntity
  8
0
  6
CONTINUOUS
 62
     3
100
AcDbLine
 10
51.25121141212646
 20
4.970595829195634
 30
0.0
 11
51.25121141212646
 21
3.130595829195631
 31
0.0
  0
LINE
  5
9B
330
1F
100
AcDbEntity
  8
0
  6
CONTINUOUS
 62
     3
100
AcDbLine
 10
17.25121141212647
 20
4.970595829195634
 30
0.0
 11
34.6342072756721
 21
4.970595829195634
 31
0.0
  0
LINE
  5
9C
330
1F
100
AcDbEntity
  8
0
  6
CONTINUOUS
 62
     3
100
AcDbLine
 10
36.0484208380452
 20
4.970595829195634
 30
0.0
 11
51.25121141212646
 21
4.970595829195634
 31
0.0
  0
LINE
  5
9D
330
1F
100
AcDbEntity
  8
0
  6
CONTINUOUS
 62
     3
100
AcDbLine
 10
51.25121141212646
 20
3.130595829195631
 30
0.0
 11
34.2084208380452
 21
3.130595829195631
 31
0.0
  0
LINE
  5
9E
330
1F
100
AcDbEntity
  8
0
  6
CONTINUOUS
 62
     3
100
AcDbLine
 10
32.7942072756721
 20
3.130595829195631
 30
0.0
 11
17.25121141212647
 21
3.130595829195631
 31
0.0
  0
LINE
  5
9F
330
1F
100
AcDbEntity
  8
0
  6
CONTINUOUS
 62
     3
100
AcDbLine
 10
51.25121141212646
 20
-8.229404170804369
 30
0.0
 11
51.25121141212646
 21
-10.06940417080437
 31
0.0
  0
LINE
  5
A0
330
1F
100
AcDbEntity
  8
0
  6
CONTINUOUS
 62
     3
100
AcDbLine
 10
17.25121141212647
 20
-8.229404170804369
 30
0.0
 11
34.6342072756721
 21
-8.229404170804369
 31
0.0
  0
LINE
  5
A1
330
1F
100
AcDbEntity
  8
0
  6
CONTINUOUS
 62
     3
100
AcDbLine
 10
36.0484208380452
 20
-8.229404170804369
 30
0.0
 11
51.25121141212646
 21
-8.229404170804369
 31
0.0
  0
LINE
  5
A2
330
1F
100
AcDbEntity
  8
0
  6
CONTINUOUS
 62
     3
100
AcDbLine
 10
51.25121141212646
 20
-10.06940417080437
 30
0.0
 11
34.2084208380452
 21
-10.06940417080437
 31
0.0
  0
LINE
  5
A3
330
1F
100
AcDbEntity
  8
0
  6
CONTINUOUS
 62
     3
100
AcDbLine
 10
32.7942072756721
 20
-10.06940417080437
 30
0.0
 11
17.25121141212647
 21
-10.06940417080437
 31
0.0
  0
CIRCLE
  5
A4
330
1F
100
AcDbEntity
  8
0
  6
CONTINUOUS
 62
     3
100
AcDbCircle
 10
79.1012141210004
 20
-2.549413297852009
 30
0.0
 40
10.0
  0
CIRCLE
  5
A5
330
1F
100
AcDbEntity
  8
0
  6
CONTINUOUS
 62
     3
100
AcDbCircle
 10
76.31268479750354
 20
-8.532320318698094
 30
0.0
 40
0.9999999999999997
  0
CIRCLE
  5
A6
330
1F
100
AcDbEntity
  8
0
  6
CONTINUOUS
 62
     3
100
AcDbCircle
 10
79.10210308500155
 20
-9.15034864011211
 30
0.0
 40
1.05
  0
CIRCLE
  5
A7
330
1F
100
AcDbEntity
  8
0
  6
CONTINUOUS
 62
     3
100
AcDbCircle
 10
81.89027152374248
 20
3.43298139593394
 30
0.0
 40
0.9999999999999997
  0
CIRCLE
  5
A8
330
1F
100
AcDbEntity
  8
0
  6
CONTINUOUS
 62
     3
100
AcDbCircle
 10
79.10085323624449
 20
4.051009717347956
 30
0.0
 40
1.05
  0
CIRCLE
  5
A9
330
1F
100
AcDbEntity
  8
0
  6
CONTINUOUS
 62
     3
100
AcDbCircle
 10
79.10085327629378
 20
-2.549413297852009
 30
0.0
 40
4.799999999999997
  0
CIRCLE
  5
AA
330
1F
100
AcDbEntity
  8
0
  6
CONTINUOUS
 62
     3
100
AcDbCircle
 10
79.10085327629378
 20
-2.549413297852009
 30
0.0
 40
8.536029765734019
  0
CIRCLE
  5
AB
330
1F
100
AcDbEntity
  8
0
  6
CONTINUOUS
 62
     3
100
AcDbCircle
 10
79.10085327629378
 20
-2.549413297852009
 30
0.0
 40
8.9
  0
CIRCLE
  5
AC
330
1F
100
AcDbEntity
  8
0
  6
CONTINUOUS
 62
     3
100
AcDbCircle
 10
79.10085327629378
 20
-2.549413297852009
 30
0.0
 40
9.400000000000006
  0
CIRCLE
  5
AD
330
1F
100
AcDbEntity
  8
0
  6
CONTINUOUS
 62
     3
100
AcDbCircle
 10
79.10210308500155
 20
-9.15034864011211
 30
0.0
 40
0.38
  0
CIRCLE
  5
AE
330
1F
100
AcDbEntity
  8
0
  6
CONTINUOUS
 62
     3
100
AcDbCircle
 10
79.10210308500152
 20
4.051522044408092
 30
0.0
 40
0.38
  0
LINE
  5
AF
330
1F
100
AcDbEntity
  8
0
  6
CONTINUOUS
 62
     3
100
AcDbLine
 10
51.25121141212646
 20
4.430595829195628
 30
0.0
 11
61.25121141212646
 21
4.430595829195628
 31
0.0
  0
LINE
  5
B0
330
1F
100
AcDbEntity
  8
0
  6
CONTINUOUS
 62
     3
100
AcDbLine
 10
51.25121141212646
 20
3.670595829195623
 30
0.0
 11
61.25121141212646
 21
3.670595829195623
 31
0.0
  0
LINE
  5
B1
330
1F
100
AcDbEntity
  8
0
  6
CONTINUOUS
 62
     3
100
AcDbLine
 10
51.25121141212646
 20
-8.769404170804375
 30
0.0
 11
61.25121141212646
 21
-8.769404170804375
 31
0.0
  0
LINE
  5
B2
330
1F
100
AcDbEntity
  8
0
  6
CONTINUOUS
 62
     3
100
AcDbLine
 10
51.25121141212646
 20
-9.529404170804366
 30
0.0
 11
61.25121141212646
 21
-9.529404170804366
 31
0.0
  0
LINE
  5
B3
330
1F
100
AcDbEntity
  8
0
  6
CONTINUOUS
 62
     3
100
AcDbLine
 10
61.25121141212646
 20
4.430595829195628
 30
0.0
 11
61.25121141212646
 21
3.670595829195623
 31
0.0
  0
LINE
  5
B4
330
1F
100
AcDbEntity
  8
0
  6
CONTINUOUS
 62
     3
100
AcDbLine
 10
61.25121141212646
 20
-8.769404170804375
 30
0.0
 11
61.25121141212646
 21
-9.529404170804366
 31
0.0
  0
LINE
  5
B5
330
1F
100
AcDbEntity
  8
0
  6
CONTINUOUS
 62
     9
100
AcDbLine
 10
-17.74878858787353
 20
-9.344547051395875
 30
0.0
 11
-17.74878858787353
 21
-23.54940417080438
 31
0.0
  0
LINE
  5
B6
330
1F
100
AcDbEntity
  8
0
  6
CONTINUOUS
 62
     9
100
AcDbLine
 10
-16.74878858787353
 20
-13.34940417080439
 30
0.0
 11
-16.74878858787353
 21
-23.54940417080438
 31
0.0
  0
LINE
  5
B7
330
1F
100
AcDbEntity
  8
0
  6
CONTINUOUS
 62
     9
100
AcDbLine
 10
-17.74878858787353
 20
-22.54940417080438
 30
0.0
 11
-16.74878858787353
 21
-22.54940417080438
 31
0.0
  0
LINE
  5
B8
330
1F
100
AcDbEntity
  8
0
  6
CONTINUOUS
 62
     9
100
AcDbLine
 10
-21.14878858787353
 20
3.950595829195624
 30
0.0
 11
-21.14878858787353
 21
18.37080609860334
 31
0.0
  0
LINE
  5
B9
330
1F
100
AcDbEntity
  8
0
  6
CONTINUOUS
 62
     9
100
AcDbLine
 10
-16.74878858787353
 20
8.250595829195635
 30
0.0
 11
-16.74878858787353
 21
28.45059582919562
 31
0.0
  0
LINE
  5
BA
330
1F
100
AcDbEntity
  8
0
  6
CONTINUOUS
 62
     9
100
AcDbLine
 10
-21.14878858787353
 20
17.37080609860334
 30
0.0
 11
-16.74878858787353
 21
17.37080609860334
 31
0.0
  0
LINE
  5
BB
330
1F
100
AcDbEntity
  8
0
  6
CONTINUOUS
 62
     9
100
AcDbLine
 10
-24.94878858787352
 20
-3.549404170804376
 30
0.0
 11
-35.54878858787351
 21
-3.549404170804376
 31
0.0
  0
LINE
  5
BC
330
1F
100
AcDbEntity
  8
0
  6
CONTINUOUS
 62
     9
100
AcDbLine
 10
-24.94878858787352
 20
-1.54940417080439
 30
0.0
 11
-35.54878858787351
 21
-1.54940417080439
 31
0.0
  0
LINE
  5
BD
330
1F
100
AcDbEntity
  8
0
  6
CONTINUOUS
 62
     9
100
AcDbLine
 10
-34.54878858787351
 20
-3.549404170804376
 30
0.0
 11
-34.54878858787351
 21
-1.54940417080439
 31
0.0
  0
LINE
  5
BE
330
1F
100
AcDbEntity
  8
0
  6
CONTINUOUS
 62
     9
100
AcDbLine
 10
-18.54878858787353
 20
-8.544547051395863
 30
0.0
 11
-45.54878858787351
 21
-8.544547051395863
 31
0.0
  0
LINE
  5
BF
330
1F
100
AcDbEntity
  8
0
  6
CONTINUOUS
 62
     9
100
AcDbLine
 10
-18.54878858787353
 20
3.445738709787111
 30
0.0
 11
-45.54878858787351
 21
3.445738709787111
 31
0.0
  0
LINE
  5
C0
330
1F
100
AcDbEntity
  8
0
  6
CONTINUOUS
 62
     9
100
AcDbLine
 10
-44.54878858787351
 20
-8.544547051395863
 30
0.0
 11
-44.54878858787351
 21
3.445738709787111
 31
0.0
  0
LINE
  5
C1
330
1F
100
AcDbEntity
  8
0
  6
CONTINUOUS
 62
     9
100
AcDbLine
 10
-17.54878858787353
 20
-12.54940417080438
 30
0.0
 11
-55.54878858787351
 21
-12.54940417080438
 31
0.0
  0
LINE
  5
C2
330
1F
100
AcDbEntity
  8
0
  6
CONTINUOUS
 62
     9
100
AcDbLine
 10
-17.54878858787353
 20
7.450595829195624
 30
0.0
 11
-55.54878858787351
 21
7.450595829195624
 31
0.0
  0
LINE
  5
C3
330
1F
100
AcDbEntity
  8
0
  6
CONTINUOUS
 62
     9
100
AcDbLine
 10
-24.34878858787351
 20
-1.549404170804376
 30
0.0
 11
-24.34878858787351
 21
28.45059582919562
 31
0.0
  0
LINE
  5
C4
330
1F
100
AcDbEntity
  8
0
  6
CONTINUOUS
 62
     9
100
AcDbLine
 10
-16.74878858787353
 20
8.250595829195635
 30
0.0
 11
-16.74878858787353
 21
28.45059582919562
 31
0.0
  0
LINE
  5
C5
330
1F
100
AcDbEntity
  8
0
  6
CONTINUOUS
 62
     9
100
AcDbLine
 10
-24.34878858787351
 20
27.45059582919562
 30
0.0
 11
-16.74878858787353
 21
27.45059582919562
 31
0.0
  0
LINE
  5
C6
330
1F
100
AcDbEntity
  8
0
  6
CONTINUOUS
 62
     9
100
AcDbLine
 10
61.25121141212646
 20
5.050595829195618
 30
0.0
 11
61.25121141212646
 21
28.45059582919562
 31
0.0
  0
LINE
  5
C7
330
1F
100
AcDbEntity
  8
0
  6
CONTINUOUS
 62
     9
100
AcDbLine
 10
51.25121141212646
 20
5.430595829195628
 30
0.0
 11
51.25121141212646
 21
18.37080609860334
 31
0.0
  0
LINE
  5
C8
330
1F
100
AcDbEntity
  8
0
  6
CONTINUOUS
 62
     9
100
AcDbLine
 10
61.25121141212646
 20
5.430595829195628
 30
0.0
 11
61.25121141212646
 21
28.45059582919562
 31
0.0
  0
LINE
  5
C9
330
1F
100
AcDbEntity
  8
0
  6
CONTINUOUS
 62
     9
100
AcDbLine
 10
17.25121141212647
 20
5.970595829195634
 30
0.0
 11
17.25121141212647
 21
28.45059582919562
 31
0.0
  0
LINE
  5
CA
330
1F
100
AcDbEntity
  8
0
  6
CONTINUOUS
 62
     9
100
AcDbLine
 10
17.25121141212647
 20
6.950595829195624
 30
0.0
 11
17.25121141212647
 21
28.45059582919562
 31
0.0
  0
LINE
  5
CB
330
1F
100
AcDbEntity
  8
0
  6
CONTINUOUS
 62
     9
100
AcDbLine
 10
-16.74878858787353
 20
8.250595829195635
 30
0.0
 11
-16.74878858787353
 21
28.45059582919562
 31
0.0
  0
LINE
  5
CC
330
1F
100
AcDbEntity
  8
0
  6
CONTINUOUS
 62
     9
100
AcDbLine
 10
-3.931008587873537
 20
-22.54940417080438
 30
0.0
 11
-16.74878858787353
 21
-22.54940417080438
 31
0.0
  0
INSERT
  5
CD
330
1F
100
AcDbEntity
  8
0
 62
     9
100
AcDbBlockReference
  2
_OPEN30
 10
-16.74878858787353
 20
-22.54940417080438
 30
0.0
 41
3.000002787824364
 42
2.999989273978464
 50
180.0
  0
LINE
  5
CE
330
1F
100
AcDbEntity
  8
0
  6
CONTINUOUS
 62
     9
100
AcDbLine
 10
-22.74878858787353
 20
-22.54940417080438
 30
0.0
 11
-17.74878858787353
 21
-22.54940417080438
 31
0.0
  0
INSERT
  5
CF
330
1F
100
AcDbEntity
  8
0
 62
     9
100
AcDbBlockReference
  2
_OPEN30
 10
-17.74878858787353
 20
-22.54940417080438
 30
0.0
 41
3.000002787824364
 42
2.999989273978464
 50
360.0
  0
LINE
  5
D0
330
1F
100
AcDbEntity
  8
0
  6
CONTINUOUS
 62
     9
100
AcDbLine
 10
-3.931008587873537
 20
17.37080609860334
 30
0.0
 11
-16.74878858787353
 21
17.37080609860334
 31
0.0
  0
INSERT
  5
D1
330
1F
100
AcDbEntity
  8
0
 62
     9
100
AcDbBlockReference
  2
_OPEN30
 10
-16.74878858787353
 20
17.37080609860334
 30
0.0
 41
3.000002787824364
 42
2.999989273978464
 50
180.0
  0
LINE
  5
D2
330
1F
100
AcDbEntity
  8
0
  6
CONTINUOUS
 62
     9
100
AcDbLine
 10
-26.14878858787353
 20
17.37080609860334
 30
0.0
 11
-21.14878858787353
 21
17.37080609860334
 31
0.0
  0
INSERT
  5
D3
330
1F
100
AcDbEntity
  8
0
 62
     9
100
AcDbBlockReference
  2
_OPEN30
 10
-21.14878858787353
 20
17.37080609860334
 30
0.0
 41
3.000002787824364
 42
2.999989273978464
 50
360.0
  0
LINE
  5
D4
330
1F
100
AcDbEntity
  8
0
  6
CONTINUOUS
 62
     9
100
AcDbLine
 10
-34.54878858787351
 20
31.60123573804073
 30
0.0
 11
-34.54878858787351
 21
-1.54940417080439
 31
0.0
  0
INSERT
  5
D5
330
1F
100
AcDbEntity
  8
0
 62
     9
100
AcDbBlockReference
  2
_OPEN30
 10
-34.54878858787351
 20
-1.54940417080439
 30
0.0
 41
3.000002787824364
 42
2.999989273978464
 50
270.0
  0
LINE
  5
D6
330
1F
100
AcDbEntity
  8
0
  6
CONTINUOUS
 62
     9
100
AcDbLine
 10
-34.54878858787351
 20
-8.549404170804376
 30
0.0
 11
-34.54878858787351
 21
-3.549404170804376
 31
0.0
  0
INSERT
  5
D7
330
1F
100
AcDbEntity
  8
0
 62
     9
100
AcDbBlockReference
  2
_OPEN30
 10
-34.54878858787351
 20
-3.549404170804376
 30
0.0
 41
3.000002787824364
 42
2.999989273978464
 50
90.0
  0
LINE
  5
D8
330
1F
100
AcDbEntity
  8
0
  6
CONTINUOUS
 62
     9
100
AcDbLine
 10
-44.54878858787351
 20
31.60123573804073
 30
0.0
 11
-44.54878858787351
 21
3.445738709787111
 31
0.0
  0
INSERT
  5
D9
330
1F
100
AcDbEntity
  8
0
 62
     9
100
AcDbBlockReference
  2
_OPEN30
 10
-44.54878858787351
 20
3.445738709787111
 30
0.0
 41
3.000002787824364
 42
2.999989273978464
 50
270.0
  0
LINE
  5
DA
330
1F
100
AcDbEntity
  8
0
  6
CONTINUOUS
 62
     9
100
AcDbLine
 10
-44.54878858787351
 20
-13.54454705139586
 30
0.0
 11
-44.54878858787351
 21
-8.544547051395863
 31
0.0
  0
INSERT
  5
DB
330
1F
100
AcDbEntity
  8
0
 62
     9
100
AcDbBlockReference
  2
_OPEN30
 10
-44.54878858787351
 20
-8.544547051395863
 30
0.0
 41
3.000002787824364
 42
2.999989273978464
 50
90.0
  0
LINE
  5
DC
330
1F
100
AcDbEntity
  8
0
  6
CONTINUOUS
 62
     9
100
AcDbLine
 10
-29.39642863111452
 20
27.45059582919562
 30
0.0
 11
-24.34878858787351
 21
27.45059582919562
 31
0.0
  0
INSERT
  5
DD
330
1F
100
AcDbEntity
  8
0
 62
     9
100
AcDbBlockReference
  2
_OPEN30
 10
-24.34878858787351
 20
27.45059582919562
 30
0.0
 41
3.000002787824364
 42
2.999989273978464
 50
360.0
  0
LINE
  5
DE
330
1F
100
AcDbEntity
  8
0
  6
CONTINUOUS
 62
     9
100
AcDbLine
 10
-11.74878858787354
 20
27.45059582919562
 30
0.0
 11
-16.74878858787353
 21
27.45059582919562
 31
0.0
  0
INSERT
  5
DF
330
1F
100
AcDbEntity
  8
0
 62
     9
100
AcDbBlockReference
  2
_OPEN30
 10
-16.74878858787353
 20
27.45059582919562
 30
0.0
 41
3.000002787824364
 42
2.999989273978464
 50
180.0
  0
LINE
  5
E0
330
1F
100
AcDbEntity
  8
0
  6
CONTINUOUS
 62
     9
100
AcDbLine
 10
-54.54878858787351
 20
-12.54940417080438
 30
0.0
 11
-54.54878858787351
 21
7.450595829195624
 31
0.0
  0
INSERT
  5
E1
330
1F
100
AcDbEntity
  8
0
 62
     9
100
AcDbBlockReference
  2
_OPEN30
 10
-54.54878858787351
 20
-12.54940417080438
 30
0.0
 41
3.000002787824364
 42
2.999989273978464
 50
270.0
  0
INSERT
  5
E2
330
1F
100
AcDbEntity
  8
0
 62
     9
100
AcDbBlockReference
  2
_OPEN30
 10
-54.54878858787351
 20
7.450595829195624
 30
0.0
 41
3.000002787824364
 42
2.999989273978464
 50
90.0
  0
LINE
  5
E3
330
1F
100
AcDbEntity
  8
0
  6
CONTINUOUS
 62
     9
100
AcDbLine
 10
51.25121141212646
 20
17.37080609860334
 30
0.0
 11
61.25121141212646
 21
17.37080609860334
 31
0.0
  0
INSERT
  5
E4
330
1F
100
AcDbEntity
  8
0
 62
     9
100
AcDbBlockReference
  2
_OPEN30
 10
51.25121141212646
 20
17.37080609860334
 30
0.0
 41
3.000002787824364
 42
2.999989273978464
 50
180.0
  0
INSERT
  5
E5
330
1F
100
AcDbEntity
  8
0
 62
     9
100
AcDbBlockReference
  2
_OPEN30
 10
61.25121141212646
 20
17.37080609860334
 30
0.0
 41
3.000002787824364
 42
2.999989273978464
 50
360.0
  0
LINE
  5
E6
330
1F
100
AcDbEntity
  8
0
  6
CONTINUOUS
 62
     9
100
AcDbLine
 10
17.25121141212647
 20
27.45059582919562
 30
0.0
 11
61.25121141212646
 21
27.45059582919562
 31
0.0
  0
INSERT
  5
E7
330
1F
100
AcDbEntity
  8
0
 62
     9
100
AcDbBlockReference
  2
_OPEN30
 10
17.25121141212647
 20
27.45059582919562
 30
0.0
 41
3.000002787824364
 42
2.999989273978464
 50
180.0
  0
INSERT
  5
E8
330
1F
100
AcDbEntity
  8
0
 62
     9
100
AcDbBlockReference
  2
_OPEN30
 10
61.25121141212646
 20
27.45059582919562
 30
0.0
 41
3.000002787824364
 42
2.999989273978464
 50
360.0
  0
LINE
  5
E9
330
1F
100
AcDbEntity
  8
0
  6
CONTINUOUS
 62
     9
100
AcDbLine
 10
-16.74878858787353
 20
27.45059582919562
 30
0.0
 11
17.25121141212647
 21
27.45059582919562
 31
0.0
  0
INSERT
  5
EA
330
1F
100
AcDbEntity
  8
0
 62
     9
100
AcDbBlockReference
  2
_OPEN30
 10
-16.74878858787353
 20
27.45059582919562
 30
0.0
 41
3.000002787824364
 42
2.999989273978464
 50
180.0
  0
INSERT
  5
EB
330
1F
100
AcDbEntity
  8
0
 62
     9
100
AcDbBlockReference
  2
_OPEN30
 10
17.25121141212647
 20
27.45059582919562
 30
0.0
 41
3.000002787824364
 42
2.999989273978464
 50
360.0
  0
TEXT
  5
EC
330
1F
100
AcDbEntity
  8
0
 62
     7
100
AcDbText
 10
-12.85100858787354
 20
-21.54940417080438
 30
0.0
 40
4.0
  1
0.5
 41
0.8000000000000002
  7
FDASTYLE0
 72
     5
 11
-3.251008587873537
 21
-21.54940417080438
 31
0.0
100
AcDbText
  0
TEXT
  5
ED
330
1F
100
AcDbEntity
  8
0
 62
     7
100
AcDbText
 10
-12.85100858787354
 20
18.37080609860334
 30
0.0
 40
4.0
  1
2.2
 41
0.8000000000000002
  7
FDASTYLE0
 72
     5
 11
-3.251008587873537
 21
18.37080609860334
 31
0.0
100
AcDbText
  0
TEXT
  5
EE
330
1F
100
AcDbEntity
  8
0
 62
     7
100
AcDbText
 10
-35.54878858787351
 20
10.80637582919561
 30
0.0
 40
4.0
  1
φ1
 50
90.0
 41
0.7272727272727271
  7
FDASTYLE0
 72
     5
 11
-35.54878858787351
 21
17.2063758291956
 31
0.0
100
AcDbText
  0
TEXT
  5
EF
330
1F
100
AcDbEntity
  8
0
 62
     7
100
AcDbText
 10
-38.44378858787351
 20
17.83637582919561
 30
0.0
 40
2.8
  1
 0
 50
90.0
 41
0.7999999999999995
  7
FDASTYLE0
 72
     5
 11
-38.44378858787351
 21
22.3163758291956
 31
0.0
100
AcDbText
  0
TEXT
  5
F0
330
1F
100
AcDbEntity
  8
0
 62
     7
100
AcDbText
 10
-35.34878858787351
 20
17.83637582919561
 30
0.0
 40
2.8
  1
-0.005
 50
90.0
 41
0.8
  7
FDASTYLE0
 72
     5
 11
-35.34878858787351
 21
31.2763758291956
 31
0.0
100
AcDbText
  0
TEXT
  5
F1
330
1F
100
AcDbEntity
  8
0
 62
     7
100
AcDbText
 10
-45.54878858787351
 20
10.28933808113597
 30
0.0
 40
4.0
  1
φ6
 50
90.0
 41
0.7272727272727271
  7
FDASTYLE0
 72
     5
 11
-45.54878858787351
 21
16.68933808113597
 31
0.0
100
AcDbText
  0
TEXT
  5
F2
330
1F
100
AcDbEntity
  8
0
 62
     7
100
AcDbText
 10
-48.44378858787351
 20
17.31933808113597
 30
0.0
 40
2.8
  1
-0.015
 50
90.0
 41
0.8
  7
FDASTYLE0
 72
     5
 11
-48.44378858787351
 21
30.75933808113597
 31
0.0
100
AcDbText
  0
TEXT
  5
F3
330
1F
100
AcDbEntity
  8
0
 62
     7
100
AcDbText
 10
-45.34878858787351
 20
17.31933808113597
 30
0.0
 40
2.8
  1
-0.030
 50
90.0
 41
0.8
  7
FDASTYLE0
 72
     5
 11
-45.34878858787351
 21
30.75933808113597
 31
0.0
100
AcDbText
  0
TEXT
  5
F4
330
1F
100
AcDbEntity
  8
0
 62
     7
100
AcDbText
 10
-56.54878858787351
 20
-11.28140417080438
 30
0.0
 40
4.0
  1
φ10
 50
90.0
 41
0.7500000000000007
  7
FDASTYLE0
 72
     5
 11
-56.54878858787351
 21
-1.681404170804374
 31
0.0
100
AcDbText
  0
TEXT
  5
F5
330
1F
100
AcDbEntity
  8
0
 62
     7
100
AcDbText
 10
-58.69378858787351
 20
-0.7714041708043844
 30
0.0
 40
2.8
  1
±0.2
 50
90.0
 41
0.7619047619047621
  7
FDASTYLE0
 72
     5
 11
-58.69378858787351
 21
8.188595829195617
 31
0.0
100
AcDbText
  0
TEXT
  5
F6
330
1F
100
AcDbEntity
  8
0
 62
     7
100
AcDbText
 10
-25.02878858787351
 20
29.45059582919562
 30
0.0
 40
4.0
  1
3.8
 41
0.8000000000000002
  7
FDASTYLE0
 72
     5
 11
-15.42878858787351
 21
29.45059582919562
 31
0.0
100
AcDbText
  0
TEXT
  5
F7
330
1F
100
AcDbEntity
  8
0
 62
     7
100
AcDbText
 10
54.65121141212646
 20
18.37080609860334
 30
0.0
 40
4.0
  1
5
 41
0.8000000000000007
  7
FDASTYLE0
 72
     5
 11
57.85121141212646
 21
18.37080609860334
 31
0.0
100
AcDbText
  0
TEXT
  5
F8
330
1F
100
AcDbEntity
  8
0
 62
     7
100
AcDbText
 10
33.83521141212646
 20
28.45059582919562
 30
0.0
 40
4.0
  1
50
 41
0.8000000000000007
  7
FDASTYLE0
 72
     5
 11
40.23521141212646
 21
28.45059582919562
 31
0.0
100
AcDbText
  0
TEXT
  5
F9
330
1F
100
AcDbEntity
  8
0
 62
     7
100
AcDbText
 10
40.67521141212647
 20
30.59559582919562
 30
0.0
 40
2.8
  1
±5
 41
0.7272727272727267
  7
FDASTYLE0
 72
     5
 11
45.15521141212646
 21
30.59559582919562
 31
0.0
100
AcDbText
  0
TEXT
  5
FA
330
1F
100
AcDbEntity
  8
0
 62
     7
100
AcDbText
 10
-2.948788587873534
 20
28.45059582919562
 30
0.0
 40
4.0
  1
17
 41
0.8
  7
FDASTYLE0
 72
     5
 11
3.451211412126466
 21
28.45059582919562
 31
0.0
100
AcDbText
  0
TEXT
  5
FB
330
1F
100
AcDbEntity
  8
0
 62
     7
100
AcDbText
 10
-87.93350544930676
 20
-36.10186788793892
 30
0.0
 40
4.0
  1
※ケーブル位置は参考です　THE CABLE LOCATION IS FOR REFERENCE ONLY.
 41
0.7632508833922261
  7
FDASTYLE0
 72
     5
 11
84.86649455069325
 21
-36.10186788793892
 31
0.0
100
AcDbText
  0
INSERT
  5
FC
330
1F
100
AcDbEntity
  8
0
  6
CONTINUOUS
100
AcDbBlockReference
  2
DC_GROUP_1
 10
0.0
 20
0.0
 30
0.0
  0
INSERT
  5
FD
330
1F
100
AcDbEntity
  8
0
  6
CONTINUOUS
100
AcDbBlockReference
  2
DC_GROUP_2
 10
0.0
 20
0.0
 30
0.0
  0
INSERT
  5
FE
330
1F
100
AcDbEntity
  8
0
  6
CONTINUOUS
100
AcDbBlockReference
  2
DC_GROUP_3
 10
0.0
 20
0.0
 30
0.0
  0
VIEWPORT
  5
46
330
1B
100
AcDbEntity
 67
     1
  8
0
100
AcDbViewport
 10
-0.3987868519668325
 20
-1.325636029371651
 30
0.0
 40
549.0000058378034
 41
208.6573911514036
 68
     1
 69
     1
1001
ACAD
1000
MVIEW
1002
{
1070
    16
1010
0.0
1020
0.0
1030
0.0
1010
0.0
1020
0.0
1030
1.0
1040
0.0
1040
208.6573911514036
1040
-0.3987868519668325
1040
-1.325636029371651
1040
50.0
1040
0.0
1040
0.0
1070
     0
1070
   100
1070
     0
1070
     1
1070
     0
1070
     0
1070
     0
1070
     0
1040
0.0
1040
0.0
1040
0.0
1040
0.5
1040
0.5
1040
0.0
1040
0.0
1070
     0
1002
{
1002
}
1002
}
  0
ENDSEC
  0
SECTION
  2
OBJECTS
  0
DICTIONARY
  5
C
330
0
100
AcDbDictionary
  3
ACAD_GROUP
350
D
  3
ACAD_LAYOUT
350
1A
  3
ACAD_MLINESTYLE
350
17
  3
ACAD_PLOTSETTINGS
350
19
  3
ACDBHEADERROUNDTRIPXREC
350
FF
  0
DICTIONARY
  5
D
102
{ACAD_REACTORS
330
C
102
}
330
C
100
AcDbDictionary
  0
DICTIONARY
  5
1A
102
{ACAD_REACTORS
330
C
102
}
330
C
100
AcDbDictionary
  0
DICTIONARY
  5
17
102
{ACAD_REACTORS
330
C
102
}
330
C
100
AcDbDictionary
  3
STANDARD
350
18
  0
DICTIONARY
  5
19
102
{ACAD_REACTORS
330
C
102
}
330
C
100
AcDbDictionary
  0
DICTIONARY
  5
FF
102
{ACAD_REACTORS
330
C
102
}
330
C
100
AcDbDictionary
  3
CEPSNTYPE
350
108
  3
DIMSTYLEDATA
350
11E
  3
FINGERPRINTGUID
350
109
  3
HYPERLINKBASE
350
102
  3
INSUNITS
350
107
  3
LAYOUTDICT
350
104
  3
LWETCUNION
350
106
  3
PLOTSETDICT
350
105
  3
PSVPSCALE
350
10B
  3
PUCSBASE
350
10E
  3
PUCSORGBACK
350
114
  3
PUCSORGBOTTOM
350
110
  3
PUCSORGFRONT
350
113
  3
PUCSORGLEFT
350
111
  3
PUCSORGRIGHT
350
112
  3
PUCSORGTOP
350
10F
  3
PUCSORTHOREF
350
10C
  3
PUCSORTHOVIEW
350
10D
  3
STYLESHEET
350
103
  3
TSTACKALIGN
350
100
  3
TSTACKSIZE
350
101
  3
UCSBASE
350
117
  3
UCSORGBACK
350
11D
  3
UCSORGBOTTOM
350
119
  3
UCSORGFRONT
350
11C
  3
UCSORGLEFT
350
11A
  3
UCSORGRIGHT
350
11B
  3
UCSORGTOP
350
118
  3
UCSORTHOREF
350
115
  3
UCSORTHOVIEW
350
116
  3
VERSIONGUID
350
10A
  0
MLINESTYLE
  5
18
102
{ACAD_REACTORS
330
17
102
}
330
17
100
AcDbMlineStyle
  2
Standard
 70
     0
  3

 62
   256
 51
90.0
 52
90.0
 71
     2
 49
0.5
 62
   256
  6
BYLAYER
 49
-0.5
 62
   256
  6
BYLAYER
  0
XRECORD
  5
108
102
{ACAD_REACTORS
330
FF
102
}
330
FF
100
AcDbXrecord
 90
        0
  0
XRECORD
  5
11E
102
{ACAD_REACTORS
330
FF
102
}
330
FF
100
AcDbXrecord
1000
DSTYLE
1002
{
1070
   171
 70
     2
1070
   143
 40
25.4
1070
   274
 70
     2
1070
   141
 40
0.09
1070
   271
 70
     4
1070
    43
 40
0.38
1070
    44
 40
0.18
1070
   278
 70
    46
1070
    42
 40
0.0625
1070
   147
 40
0.09
1070
    77
 70
     3
1070
   272
 70
     4
1070
    73
 70
     1
1070
   172
 70
     0
1070
    74
 70
     1
1070
   283
 70
     1
1070
   340
340
11
1070
   140
 40
0.18
1070
   284
 70
     0
1070
    78
 70
     0
1002
}
  0
XRECORD
  5
109
102
{ACAD_REACTORS
330
FF
102
}
330
FF
100
AcDbXrecord
  1
{F57F3082-4140-40FC-B199-1DD90222DF09}
  0
XRECORD
  5
102
102
{ACAD_REACTORS
330
FF
102
}
330
FF
100
AcDbXrecord
  1

  0
XRECORD
  5
107
102
{ACAD_REACTORS
330
FF
102
}
330
FF
100
AcDbXrecord
 90
        4
  0
XRECORD
  5
104
102
{ACAD_REACTORS
330
FF
102
}
330
FF
100
AcDbXrecord
340
1A
  0
XRECORD
  5
106
102
{ACAD_REACTORS
330
FF
102
}
330
FF
100
AcDbXrecord
 90
    10781
  0
XRECORD
  5
105
102
{ACAD_REACTORS
330
FF
102
}
330
FF
100
AcDbXrecord
340
19
  0
XRECORD
  5
10B
102
{ACAD_REACTORS
330
FF
102
}
330
FF
100
AcDbXrecord
 40
0.0
  0
XRECORD
  5
10E
102
{ACAD_REACTORS
330
FF
102
}
330
FF
100
AcDbXrecord
340
0
  0
XRECORD
  5
114
102
{ACAD_REACTORS
330
FF
102
}
330
FF
100
AcDbXrecord
 10
0.0
 20
0.0
 30
0.0
  0
XRECORD
  5
110
102
{ACAD_REACTORS
330
FF
102
}
330
FF
100
AcDbXrecord
 10
0.0
 20
0.0
 30
0.0
  0
XRECORD
  5
113
102
{ACAD_REACTORS
330
FF
102
}
330
FF
100
AcDbXrecord
 10
0.0
 20
0.0
 30
0.0
  0
XRECORD
  5
111
102
{ACAD_REACTORS
330
FF
102
}
330
FF
100
AcDbXrecord
 10
0.0
 20
0.0
 30
0.0
  0
XRECORD
  5
112
102
{ACAD_REACTORS
330
FF
102
}
330
FF
100
AcDbXrecord
 10
0.0
 20
0.0
 30
0.0
  0
XRECORD
  5
10F
102
{ACAD_REACTORS
330
FF
102
}
330
FF
100
AcDbXrecord
 10
0.0
 20
0.0
 30
0.0
  0
XRECORD
  5
10C
102
{ACAD_REACTORS
330
FF
102
}
330
FF
100
AcDbXrecord
340
0
  0
XRECORD
  5
10D
102
{ACAD_REACTORS
330
FF
102
}
330
FF
100
AcDbXrecord
 70
     0
  0
XRECORD
  5
103
102
{ACAD_REACTORS
330
FF
102
}
330
FF
100
AcDbXrecord
  1

  0
XRECORD
  5
100
102
{ACAD_REACTORS
330
FF
102
}
330
FF
100
AcDbXrecord
 90
        1
  0
XRECORD
  5
101
102
{ACAD_REACTORS
330
FF
102
}
330
FF
100
AcDbXrecord
 90
       70
  0
XRECORD
  5
117
102
{ACAD_REACTORS
330
FF
102
}
330
FF
100
AcDbXrecord
340
0
  0
XRECORD
  5
11D
102
{ACAD_REACTORS
330
FF
102
}
330
FF
100
AcDbXrecord
 10
0.0
 20
0.0
 30
0.0
  0
XRECORD
  5
119
102
{ACAD_REACTORS
330
FF
102
}
330
FF
100
AcDbXrecord
 10
0.0
 20
0.0
 30
0.0
  0
XRECORD
  5
11C
102
{ACAD_REACTORS
330
FF
102
}
330
FF
100
AcDbXrecord
 10
0.0
 20
0.0
 30
0.0
  0
XRECORD
  5
11A
102
{ACAD_REACTORS
330
FF
102
}
330
FF
100
AcDbXrecord
 10
0.0
 20
0.0
 30
0.0
  0
XRECORD
  5
11B
102
{ACAD_REACTORS
330
FF
102
}
330
FF
100
AcDbXrecord
 10
0.0
 20
0.0
 30
0.0
  0
XRECORD
  5
118
102
{ACAD_REACTORS
330
FF
102
}
330
FF
100
AcDbXrecord
 10
0.0
 20
0.0
 30
0.0
  0
XRECORD
  5
115
102
{ACAD_REACTORS
330
FF
102
}
330
FF
100
AcDbXrecord
340
0
  0
XRECORD
  5
116
102
{ACAD_REACTORS
330
FF
102
}
330
FF
100
AcDbXrecord
 70
     0
  0
XRECORD
  5
10A
102
{ACAD_REACTORS
330
FF
102
}
330
FF
100
AcDbXrecord
  1
{FAEB1C32-E019-11D5-929B-00C0DF256EC4}
  0
ENDSEC
  0
EOF
