  0
SECTION
  2
HEADER
  9
$ACADVER
  1
AC1014
  9
$ACADMAINTVER
 70
     9
  9
$DWGCODEPAGE
  3
ANSI_932
  9
$INSBASE
 10
0.0
 20
0.0
 30
0.0
  9
$EXTMIN
 10
-246.3459307400581
 20
-112.0961245815494
 30
0.0
  9
$EXTMAX
 10
249.8532404370928
 20
113.4338781223748
 30
0.0
  9
$LIMMIN
 10
-148.5
 20
-105.0
  9
$LIMMAX
 10
148.5
 20
105.0
  9
$ORTHOMODE
 70
     0
  9
$REGENMODE
 70
     1
  9
$FILLMODE
 70
     1
  9
$QTEXTMODE
 70
     0
  9
$MIRRTEXT
 70
     1
  9
$DRAGMODE
 70
     2
  9
$LTSCALE
 40
1.0
  9
$OSMODE
 70
    37
  9
$ATTMODE
 70
     1
  9
$TEXTSIZE
 40
0.2
  9
$TRACEWID
 40
0.05
  9
$TEXTSTYLE
  7
STANDARD
  9
$CLAYER
  8
0
  9
$CELTYPE
  6
BYLAYER
  9
$CECOLOR
 62
   256
  9
$CELTSCALE
 40
1.0
  9
$DELOBJ
 70
     1
  9
$DISPSILH
 70
     0
  9
$DIMSCALE
 40
1.0
  9
$DIMASZ
 40
2.5
  9
$DIMEXO
 40
0.0625
  9
$DIMDLI
 40
0.38
  9
$DIMRND
 40
0.0
  9
$DIMDLE
 40
0.0
  9
$DIMEXE
 40
0.18
  9
$DIMTP
 40
0.0
  9
$DIMTM
 40
0.0
  9
$DIMTXT
 40
0.18
  9
$DIMCEN
 40
0.09
  9
$DIMTSZ
 40
0.0
  9
$DIMTOL
 70
     0
  9
$DIMLIM
 70
     0
  9
$DIMTIH
 70
     1
  9
$DIMTOH
 70
     1
  9
$DIMSE1
 70
     0
  9
$DIMSE2
 70
     0
  9
$DIMTAD
 70
     3
  9
$DIMZIN
 70
     0
  9
$DIMBLK
  1

  9
$DIMASO
 70
     1
  9
$DIMSHO
 70
     1
  9
$DIMPOST
  1

  9
$DIMAPOST
  1

  9
$DIMALT
 70
     0
  9
$DIMALTD
 70
     2
  9
$DIMALTF
 40
25.4
  9
$DIMLFAC
 40
1.0
  9
$DIMTOFL
 70
     0
  9
$DIMTVP
 40
0.0
  9
$DIMTIX
 70
     0
  9
$DIMSOXD
 70
     0
  9
$DIMSAH
 70
     0
  9
$DIMBLK1
  1

  9
$DIMBLK2
  1

  9
$DIMSTYLE
  2
STANDARD
  9
$DIMCLRD
 70
     0
  9
$DIMCLRE
 70
     0
  9
$DIMCLRT
 70
     0
  9
$DIMTFAC
 40
1.0
  9
$DIMGAP
 40
0.09
  9
$DIMJUST
 70
     0
  9
$DIMSD1
 70
     0
  9
$DIMSD2
 70
     0
  9
$DIMTOLJ
 70
     1
  9
$DIMTZIN
 70
     0
  9
$DIMALTZ
 70
     0
  9
$DIMALTTZ
 70
     0
  9
$DIMFIT
 70
     3
  9
$DIMUPT
 70
     0
  9
$DIMUNIT
 70
     2
  9
$DIMDEC
 70
     4
  9
$DIMTDEC
 70
     4
  9
$DIMALTU
 70
     2
  9
$DIMALTTD
 70
     2
  9
$DIMTXSTY
  7
STANDARD
  9
$DIMAUNIT
 70
     0
  9
$LUNITS
 70
     2
  9
$LUPREC
 70
     4
  9
$SKETCHINC
 40
0.1
  9
$FILLETRAD
 40
0.5
  9
$AUNITS
 70
     0
  9
$AUPREC
 70
     0
  9
$MENU
  1
.
  9
$ELEVATION
 40
0.0
  9
$PELEVATION
 40
0.0
  9
$THICKNESS
 40
0.0
  9
$LIMCHECK
 70
     0
  9
$CHAMFERA
 40
0.5
  9
$CHAMFERB
 40
0.5
  9
$CHAMFERC
 40
1.0
  9
$CHAMFERD
 40
0.0
  9
$SKPOLY
 70
     0
  9
$TDCREATE
 40
2456434.79306544
  9
$TDUPDATE
 40
2456434.793065452
  9
$TDINDWG
 40
0.0000000116
  9
$TDUSRTIMER
 40
0.0000000116
  9
$USRTIMER
 70
     1
  9
$ANGBASE
 50
0.0
  9
$ANGDIR
 70
     0
  9
$PDMODE
 70
     0
  9
$PDSIZE
 40
1.0
  9
$PLINEWID
 40
0.0
  9
$COORDS
 70
     1
  9
$SPLFRAME
 70
     0
  9
$SPLINETYPE
 70
     6
  9
$SPLINESEGS
 70
     8
  9
$ATTDIA
 70
     0
  9
$ATTREQ
 70
     1
  9
$HANDLING
 70
     1
  9
$HANDSEED
  5
152
  9
$SURFTAB1
 70
     6
  9
$SURFTAB2
 70
     6
  9
$SURFTYPE
 70
     6
  9
$SURFU
 70
     6
  9
$SURFV
 70
     6
  9
$UCSNAME
  2

  9
$UCSORG
 10
0.0
 20
0.0
 30
0.0
  9
$UCSXDIR
 10
1.0
 20
0.0
 30
0.0
  9
$UCSYDIR
 10
0.0
 20
1.0
 30
0.0
  9
$PUCSNAME
  2

  9
$PUCSORG
 10
0.0
 20
0.0
 30
0.0
  9
$PUCSXDIR
 10
1.0
 20
0.0
 30
0.0
  9
$PUCSYDIR
 10
0.0
 20
1.0
 30
0.0
  9
$USERI1
 70
     0
  9
$USERI2
 70
     0
  9
$USERI3
 70
     0
  9
$USERI4
 70
     0
  9
$USERI5
 70
     0
  9
$USERR1
 40
0.0
  9
$USERR2
 40
0.0
  9
$USERR3
 40
0.0
  9
$USERR4
 40
0.0
  9
$USERR5
 40
0.0
  9
$WORLDVIEW
 70
     1
  9
$SHADEDGE
 70
     3
  9
$SHADEDIF
 70
    70
  9
$TILEMODE
 70
     1
  9
$MAXACTVP
 70
    64
  9
$PINSBASE
 10
0.0
 20
0.0
 30
0.0
  9
$PLIMCHECK
 70
     0
  9
$PEXTMIN
 10
1.000000000000000E+20
 20
1.000000000000000E+20
 30
1.000000000000000E+20
  9
$PEXTMAX
 10
-1.000000000000000E+20
 20
-1.000000000000000E+20
 30
-1.000000000000000E+20
  9
$PLIMMIN
 10
0.0
 20
0.0
  9
$PLIMMAX
 10
12.0
 20
9.0
  9
$UNITMODE
 70
     0
  9
$VISRETAIN
 70
     0
  9
$PLINEGEN
 70
     1
  9
$PSLTSCALE
 70
     0
  9
$TREEDEPTH
 70
  3020
  9
$PICKSTYLE
 70
     1
  9
$CMLSTYLE
  2
STANDARD
  9
$CMLJUST
 70
     0
  9
$CMLSCALE
 40
1.0
  9
$PROXYGRAPHICS
 70
     0
  9
$MEASUREMENT
 70
     1
  0
ENDSEC
  0
SECTION
  2
CLASSES
  0
CLASS
  1
ACDBDICTIONARYWDFLT
  2
AcDbDictionaryWithDefault
  3
ObjectDBX Classes
 90
        0
280
     0
281
     0
  0
CLASS
  1
XRECORD
  2
AcDbXrecord
  3
AutoCAD 2000
 90
        0
280
     0
281
     0
  0
CLASS
  1
LWPOLYLINE
  2
AcDbPolyline
  3
AutoCAD 2000
 90
        0
280
     0
281
     1
  0
CLASS
  1
HATCH
  2
AcDbHatch
  3
AutoCAD 2000
 90
        0
280
     0
281
     1
  0
CLASS
  1
ACDBPLACEHOLDER
  2
AcDbPlaceHolder
  3
ObjectDBX Classes
 90
        0
280
     0
281
     0
  0
CLASS
  1
LAYOUT
  2
AcDbLayout
  3
ObjectDBX Classes
 90
        0
280
     0
281
     0
  0
ENDSEC
  0
SECTION
  2
TABLES
  0
TABLE
  2
VPORT
  5
8
330
0
100
AcDbSymbolTable
 70
     1
  0
VPORT
  5
29
330
8
100
AcDbSymbolTableRecord
100
AcDbViewportTableRecord
  2
*ACTIVE
 70
     0
 10
0.0
 20
0.0
 11
1.0
 21
1.0
 12
0.0
 22
0.0
 13
0.0
 23
0.0
 14
0.5
 24
0.5
 15
0.5
 25
0.5
 16
0.0
 26
0.0
 36
1.0
 17
2.003656242429525
 27
4.111523829236234
 37
0.0
 40
69.65720091933422
 41
2.429292575792314
 42
50.0
 43
0.0
 44
0.0
 50
0.0
 51
0.0
 71
     0
 72
  1000
 73
     1
 74
     1
 75
     0
 76
     0
 77
     0
 78
     0
  0
ENDTAB
  0
TABLE
  2
LTYPE
  5
5
330
0
100
AcDbSymbolTable
 70
    28
  0
LTYPE
  5
14
330
5
100
AcDbSymbolTableRecord
100
AcDbLinetypeTableRecord
  2
BYBLOCK
 70
     0
  3

 72
    65
 73
     0
 40
0.0
  0
LTYPE
  5
15
330
5
100
AcDbSymbolTableRecord
100
AcDbLinetypeTableRecord
  2
BYLAYER
 70
     0
  3

 72
    65
 73
     0
 40
0.0
  0
LTYPE
  5
16
330
5
100
AcDbSymbolTableRecord
100
AcDbLinetypeTableRecord
  2
CONTINUOUS
 70
     0
  3
Solid line
 72
    65
 73
     0
 40
0.0
  0
LTYPE
  5
2B
330
5
100
AcDbSymbolTableRecord
100
AcDbLinetypeTableRecord
  2
HIDDENX2
 70
     0
  3
CADPAC LINETYPE
 72
    65
 73
     2
 40
4.57516339869278
 49
3.431372549019585
 74
     0
 49
-1.143790849673195
 74
     0
  0
LTYPE
  5
2C
330
5
100
AcDbSymbolTableRecord
100
AcDbLinetypeTableRecord
  2
HIDDEN
 70
     0
  3
CADPAC LINETYPE
 72
    65
 73
     2
 40
3.431372549019585
 49
2.28758169934639
 74
     0
 49
-1.143790849673195
 74
     0
  0
LTYPE
  5
2D
330
5
100
AcDbSymbolTableRecord
100
AcDbLinetypeTableRecord
  2
HIDDEN2
 70
     0
  3
CADPAC LINETYPE
 72
    65
 73
     2
 40
2.859477124182988
 49
1.715686274509793
 74
     0
 49
-1.143790849673195
 74
     0
  0
LTYPE
  5
2E
330
5
100
AcDbSymbolTableRecord
100
AcDbLinetypeTableRecord
  2
DASHED
 70
     0
  3
CADPAC LINETYPE
 72
    65
 73
     2
 40
3.202614379084935
 49
2.28758169934639
 74
     0
 49
-0.9150326797385446
 74
     0
  0
LTYPE
  5
2F
330
5
100
AcDbSymbolTableRecord
100
AcDbLinetypeTableRecord
  2
DASHED2
 70
     0
  3
CADPAC LINETYPE
 72
    65
 73
     2
 40
2.058823529411711
 49
1.372549019607817
 74
     0
 49
-0.6862745098038943
 74
     0
  0
LTYPE
  5
30
330
5
100
AcDbSymbolTableRecord
100
AcDbLinetypeTableRecord
  2
DASHEDX2
 70
     0
  3
CADPAC LINETYPE
 72
    65
 73
     2
 40
5.490196078431325
 49
4.57516339869278
 74
     0
 49
-0.9150326797385446
 74
     0
  0
LTYPE
  5
31
330
5
100
AcDbSymbolTableRecord
100
AcDbLinetypeTableRecord
  2
DOTX2
 70
     0
  3
CADPAC LINETYPE
 72
    65
 73
     2
 40
2.001633986928084
 49
0.0
 74
     0
 49
-2.001633986928084
 74
     0
  0
LTYPE
  5
32
330
5
100
AcDbSymbolTableRecord
100
AcDbLinetypeTableRecord
  2
DOT
 70
     0
  3
CADPAC LINETYPE
 72
    65
 73
     2
 40
1.601307189542467
 49
0.0
 74
     0
 49
-1.601307189542467
 74
     0
  0
LTYPE
  5
33
330
5
100
AcDbSymbolTableRecord
100
AcDbLinetypeTableRecord
  2
DOT2
 70
     0
  3
CADPAC LINETYPE
 72
    65
 73
     2
 40
1.200980392156851
 49
0.0
 74
     0
 49
-1.200980392156851
 74
     0
  0
LTYPE
  5
34
330
5
100
AcDbSymbolTableRecord
100
AcDbLinetypeTableRecord
  2
CENTERX2
 70
     0
  3
CADPAC LINETYPE
 72
    65
 73
     4
 40
6.86274509803917
 49
2.859477124182988
 74
     0
 49
-1.429738562091494
 74
     0
 49
1.143790849673195
 74
     0
 49
-1.429738562091494
 74
     0
  0
LTYPE
  5
35
330
5
100
AcDbSymbolTableRecord
100
AcDbLinetypeTableRecord
  2
CENTER
 70
     0
  3
CADPAC LINETYPE
 72
    65
 73
     4
 40
5.261437908496697
 49
2.28758169934639
 74
     0
 49
-1.143790849673195
 74
     0
 49
0.686274509803917
 74
     0
 49
-1.143790849673195
 74
     0
  0
LTYPE
  5
36
330
5
100
AcDbSymbolTableRecord
100
AcDbLinetypeTableRecord
  2
CENTER2
 70
     0
  3
CADPAC LINETYPE
 72
    65
 73
     4
 40
3.660130718954224
 49
1.715686274509793
 74
     0
 49
-0.8578431372548963
 74
     0
 49
0.228758169934639
 74
     0
 49
-0.8578431372548963
 74
     0
  0
LTYPE
  5
37
330
5
100
AcDbSymbolTableRecord
100
AcDbLinetypeTableRecord
  2
DASHDOTX2
 70
     0
  3
CADPAC LINETYPE
 72
    65
 73
     4
 40
10.98039215686262
 49
5.490196078431353
 74
     0
 49
-1.830065359477089
 74
     0
 49
1.830065359477089
 74
     0
 49
-1.830065359477089
 74
     0
  0
LTYPE
  5
38
330
5
100
AcDbSymbolTableRecord
100
AcDbLinetypeTableRecord
  2
DASHDOT
 70
     0
  3
CADPAC LINETYPE
 72
    65
 73
     4
 40
5.490196078431296
 49
2.745098039215662
 74
     0
 49
-0.9150326797385446
 74
     0
 49
0.9150326797385446
 74
     0
 49
-0.9150326797385446
 74
     0
  0
LTYPE
  5
39
330
5
100
AcDbSymbolTableRecord
100
AcDbLinetypeTableRecord
  2
DASHDOT2
 70
     0
  3
CADPAC LINETYPE
 72
    65
 73
     4
 40
3.522875816993418
 49
2.058823529411747
 74
     0
 49
-0.6862745098039085
 74
     0
 49
0.0915032679738545
 74
     0
 49
-0.6862745098039085
 74
     0
  0
LTYPE
  5
3A
330
5
100
AcDbSymbolTableRecord
100
AcDbLinetypeTableRecord
  2
DIVIDEX2
 70
     0
  3
CADPAC LINETYPE
 72
    65
 73
     6
 40
14.6405228758168
 49
5.490196078431353
 74
     0
 49
-1.830065359477089
 74
     0
 49
1.830065359477089
 74
     0
 49
-1.830065359477089
 74
     0
 49
1.830065359477089
 74
     0
 49
-1.830065359477089
 74
     0
  0
LTYPE
  5
3B
330
5
100
AcDbSymbolTableRecord
100
AcDbLinetypeTableRecord
  2
DIVIDE
 70
     0
  3
CADPAC LINETYPE
 72
    65
 73
     6
 40
7.320261437908386
 49
2.745098039215662
 74
     0
 49
-0.9150326797385446
 74
     0
 49
0.9150326797385446
 74
     0
 49
-0.9150326797385446
 74
     0
 49
0.9150326797385446
 74
     0
 49
-0.9150326797385446
 74
     0
  0
LTYPE
  5
3C
330
5
100
AcDbSymbolTableRecord
100
AcDbLinetypeTableRecord
  2
DIVIDE2
 70
     0
  3
CADPAC LINETYPE
 72
    65
 73
     6
 40
5.490196078431289
 49
2.058823529411747
 74
     0
 49
-0.6862745098039085
 74
     0
 49
0.6862745098039085
 74
     0
 49
-0.6862745098039085
 74
     0
 49
0.6862745098039085
 74
     0
 49
-0.6862745098039085
 74
     0
  0
LTYPE
  5
3D
330
5
100
AcDbSymbolTableRecord
100
AcDbLinetypeTableRecord
  2
BORDERX2
 70
     0
  3
CADPAC LINETYPE
 72
    65
 73
     6
 40
10.00816993464046
 49
2.859477124182988
 74
     0
 49
-1.429738562091494
 74
     0
 49
2.859477124182988
 74
     0
 49
-1.429738562091494
 74
     0
 49
0.0
 74
     0
 49
-1.429738562091494
 74
     0
  0
LTYPE
  5
3E
330
5
100
AcDbSymbolTableRecord
100
AcDbLinetypeTableRecord
  2
BORDER
 70
     0
  3
CADPAC LINETYPE
 72
    65
 73
     6
 40
8.006535947712365
 49
2.28758169934639
 74
     0
 49
-1.143790849673195
 74
     0
 49
2.28758169934639
 74
     0
 49
-1.143790849673195
 74
     0
 49
0.0
 74
     0
 49
-1.143790849673195
 74
     0
  0
LTYPE
  5
3F
330
5
100
AcDbSymbolTableRecord
100
AcDbLinetypeTableRecord
  2
BORDER2
 70
     0
  3
CADPAC LINETYPE
 72
    65
 73
     6
 40
5.947712418300569
 49
1.830065359477089
 74
     0
 49
-1.143790849673195
 74
     0
 49
0.6862745098038943
 74
     0
 49
-1.143790849673195
 74
     0
 49
0.0
 74
     0
 49
-1.143790849673195
 74
     0
  0
LTYPE
  5
40
330
5
100
AcDbSymbolTableRecord
100
AcDbLinetypeTableRecord
  2
PHANTOMX2
 70
     0
  3
CADPAC LINETYPE
 72
    65
 73
     6
 40
8.578431372548963
 49
2.859477124182988
 74
     0
 49
-1.143790849673195
 74
     0
 49
1.143790849673195
 74
     0
 49
-1.143790849673195
 74
     0
 49
1.143790849673195
 74
     0
 49
-1.143790849673195
 74
     0
  0
LTYPE
  5
41
330
5
100
AcDbSymbolTableRecord
100
AcDbLinetypeTableRecord
  2
PHANTOM
 70
     0
  3
CADPAC LINETYPE
 72
    65
 73
     6
 40
7.09150326797381
 49
2.28758169934639
 74
     0
 49
-1.143790849673195
 74
     0
 49
0.686274509803917
 74
     0
 49
-1.143790849673195
 74
     0
 49
0.686274509803917
 74
     0
 49
-1.143790849673195
 74
     0
  0
LTYPE
  5
42
330
5
100
AcDbSymbolTableRecord
100
AcDbLinetypeTableRecord
  2
PHANTOM2
 70
     0
  3
CADPAC LINETYPE
 72
    65
 73
     6
 40
6.062091503267933
 49
1.715686274509793
 74
     0
 49
-1.143790849673195
 74
     0
 49
0.457516339869278
 74
     0
 49
-1.143790849673195
 74
     0
 49
0.457516339869278
 74
     0
 49
-1.143790849673195
 74
     0
  0
LTYPE
  5
43
330
5
100
AcDbSymbolTableRecord
100
AcDbLinetypeTableRecord
  2
ACAD_ISO06W100
 70
     0
  3
CADPAC LINETYPE
 72
    65
 73
     8
 40
12.12418300653582
 49
5.490196078431353
 74
     0
 49
-1.143790849673195
 74
     0
 49
0.6862745098038943
 74
     0
 49
-1.143790849673195
 74
     0
 49
0.6862745098038943
 74
     0
 49
-1.143790849673195
 74
     0
 49
0.6862745098038943
 74
     0
 49
-1.143790849673195
 74
     0
  0
LTYPE
  5
44
330
5
100
AcDbSymbolTableRecord
100
AcDbLinetypeTableRecord
  2
ACAD_ISO13W100
 70
     0
  3
CADPAC LINETYPE
 72
    65
 73
     8
 40
9.15032679738556
 49
2.28758169934639
 74
     0
 49
-1.143790849673195
 74
     0
 49
2.28758169934639
 74
     0
 49
-1.143790849673195
 74
     0
 49
0.0
 74
     0
 49
-1.143790849673195
 74
     0
 49
0.0
 74
     0
 49
-1.143790849673195
 74
     0
  0
LTYPE
  5
45
330
5
100
AcDbSymbolTableRecord
100
AcDbLinetypeTableRecord
  2
ACAD_ISO14W100
 70
     0
  3
CADPAC LINETYPE
 72
    65
 73
     8
 40
6.86274509803917
 49
2.28758169934639
 74
     0
 49
-1.143790849673195
 74
     0
 49
0.0
 74
     0
 49
-1.143790849673195
 74
     0
 49
0.0
 74
     0
 49
-1.143790849673195
 74
     0
 49
0.0
 74
     0
 49
-1.143790849673195
 74
     0
  0
ENDTAB
  0
TABLE
  2
LAYER
  5
2
330
0
100
AcDbSymbolTable
 70
     3
  0
LAYER
  5
10
330
2
100
AcDbSymbolTableRecord
100
AcDbLayerTableRecord
  2
0
 70
     0
 62
     7
  6
CONTINUOUS
  0
LAYER
  5
46
330
2
100
AcDbSymbolTableRecord
100
AcDbLayerTableRecord
  2
LAYER0001
 70
     0
 62
     7
  6
CONTINUOUS
  0
LAYER
  5
47
330
2
100
AcDbSymbolTableRecord
100
AcDbLayerTableRecord
  2
LAYER0112
 70
     0
 62
     7
  6
CONTINUOUS
  0
ENDTAB
  0
TABLE
  2
STYLE
  5
3
330
0
100
AcDbSymbolTable
 70
     2
  0
STYLE
  5
11
330
3
100
AcDbSymbolTableRecord
100
AcDbTextStyleTableRecord
  2
STANDARD
 70
     0
 40
0.0
 41
1.0
 50
0.0
 71
     0
 42
0.2
  3
txt
  4

  0
STYLE
  5
5A
330
3
100
AcDbSymbolTableRecord
100
AcDbTextStyleTableRecord
  2
FDASTYLE0
 70
     0
 40
4.0
 41
0.7999999999999999
 50
0.0
 71
     0
 42
0.2
  3
txt.shx
  4
bigfont
  0
ENDTAB
  0
TABLE
  2
VIEW
  5
6
330
0
100
AcDbSymbolTable
 70
     0
  0
ENDTAB
  0
TABLE
  2
UCS
  5
7
330
0
100
AcDbSymbolTable
 70
     0
  0
ENDTAB
  0
TABLE
  2
APPID
  5
9
330
0
100
AcDbSymbolTable
 70
     2
  0
APPID
  5
12
330
9
100
AcDbSymbolTableRecord
100
AcDbRegAppTableRecord
  2
ACAD
 70
     0
  0
APPID
  5
2A
330
9
100
AcDbSymbolTableRecord
100
AcDbRegAppTableRecord
  2
DAFUSIONOUT
 70
     0
  0
ENDTAB
  0
TABLE
  2
DIMSTYLE
  5
A
330
0
100
AcDbSymbolTable
 70
     1
  0
DIMSTYLE
105
27
330
A
100
AcDbSymbolTableRecord
100
AcDbDimStyleTableRecord
  2
STANDARD
 70
     0
  3

  4

  5

  6

  7

 40
1.0
 41
0.18
 42
0.0625
 43
0.38
 44
0.18
 45
0.0
 46
0.0
 47
0.0
 48
0.0
140
0.18
141
0.09
142
0.0
143
25.4
144
1.0
145
0.0
146
1.0
147
0.09
 71
     0
 72
     0
 73
     1
 74
     1
 75
     0
 76
     0
 77
     0
 78
     0
170
     0
171
     2
172
     0
173
     0
174
     0
175
     0
176
     0
177
     0
178
     0
270
     2
271
     4
272
     4
273
     2
274
     2
340
11
275
     0
280
     0
281
     0
282
     0
283
     1
284
     0
285
     0
286
     0
287
     3
288
     0
  0
ENDTAB
  0
TABLE
  2
BLOCK_RECORD
  5
1
330
0
100
AcDbSymbolTable
 70
     5
  0
BLOCK_RECORD
  5
1F
330
1
100
AcDbSymbolTableRecord
100
AcDbBlockTableRecord
  2
*MODEL_SPACE
  0
BLOCK_RECORD
  5
1B
330
1
100
AcDbSymbolTableRecord
100
AcDbBlockTableRecord
  2
*PAPER_SPACE
  0
BLOCK_RECORD
  5
49
330
1
100
AcDbSymbolTableRecord
100
AcDbBlockTableRecord
  2
DA_IMAGEDIMGROUP_1
  0
BLOCK_RECORD
  5
4C
330
1
100
AcDbSymbolTableRecord
100
AcDbBlockTableRecord
  2
DA_IMAGEDIMGROUP_2
  0
BLOCK_RECORD
  5
52
330
1
100
AcDbSymbolTableRecord
100
AcDbBlockTableRecord
  2
_OPEN30
  0
BLOCK_RECORD
  5
F7
330
1
100
AcDbSymbolTableRecord
100
AcDbBlockTableRecord
  2
_DOT
  0
ENDTAB
  0
ENDSEC
  0
SECTION
  2
BLOCKS
  0
BLOCK
  5
20
330
1F
100
AcDbEntity
  8
0
100
AcDbBlockBegin
  2
*MODEL_SPACE
 70
     0
 71
     0
 10
0.0
 20
0.0
 30
0.0
  3
*MODEL_SPACE
  1

  0
ENDBLK
  5
21
330
1F
100
AcDbEntity
  8
0
100
AcDbBlockEnd
  0
BLOCK
  5
1C
330
1B
100
AcDbEntity
 67
     1
  8
0
100
AcDbBlockBegin
  2
*PAPER_SPACE
 70
     0
 71
     0
 10
0.0
 20
0.0
 30
0.0
  3
*PAPER_SPACE
  1

  0
ENDBLK
  5
1D
330
1B
100
AcDbEntity
 67
     1
  8
0
100
AcDbBlockEnd
  0
BLOCK
  5
4A
330
49
100
AcDbEntity
  8
0
100
AcDbBlockBegin
  2
DA_IMAGEDIMGROUP_1
 70
     0
 71
     0
 10
0.0
 20
0.0
 30
0.0
  3
DA_IMAGEDIMGROUP_1
  1

  0
LINE
  5
4F
330
49
100
AcDbEntity
  8
0
  6
CONTINUOUS
 62
     9
100
AcDbLine
 10
33.48009049773754
 20
8.219457013574658
 30
0.0
 11
33.48009049773754
 21
32.91945701357466
 31
0.0
  0
LINE
  5
50
330
49
100
AcDbEntity
  8
0
  6
CONTINUOUS
 62
     9
100
AcDbLine
 10
2.180090497737551
 20
8.419457013574668
 30
0.0
 11
2.180090497737551
 21
32.91945701357466
 31
0.0
  0
LINE
  5
51
330
49
100
AcDbEntity
  8
0
  6
CONTINUOUS
 62
     9
100
AcDbLine
 10
2.180090497737551
 20
31.91945701357466
 30
0.0
 11
33.48009049773754
 21
31.91945701357466
 31
0.0
  0
INSERT
  5
58
330
49
100
AcDbEntity
  8
0
 62
     9
100
AcDbBlockReference
  2
_OPEN30
 10
2.180090497737551
 20
31.91945701357466
 30
0.0
 41
3.000002787824364
 42
2.999989273978464
 50
180.0
  0
INSERT
  5
59
330
49
100
AcDbEntity
  8
0
 62
     9
100
AcDbBlockReference
  2
_OPEN30
 10
33.48009049773754
 20
31.91945701357466
 30
0.0
 41
3.000002787824364
 42
2.999989273978464
 50
360.0
  0
TEXT
  5
5B
330
49
100
AcDbEntity
  8
0
 62
     7
100
AcDbText
 10
11.43009049773754
 20
32.91945701357466
 30
0.0
 40
4.0
  1
31.3
 41
0.7999999999999999
  7
FDASTYLE0
 72
     5
 11
24.23009049773754
 21
32.91945701357466
 31
0.0
100
AcDbText
  0
ENDBLK
  5
4B
330
49
100
AcDbEntity
  8
0
100
AcDbBlockEnd
  0
BLOCK
  5
4D
330
4C
100
AcDbEntity
  8
0
100
AcDbBlockBegin
  2
DA_IMAGEDIMGROUP_2
 70
     0
 71
     0
 10
0.0
 20
0.0
 30
0.0
  3
DA_IMAGEDIMGROUP_2
  1

  0
LINE
  5
5C
330
4C
100
AcDbEntity
  8
0
  6
CONTINUOUS
 62
     9
100
AcDbLine
 10
-66.72500495470604
 20
-2.330542986425339
 30
0.0
 11
-75.74620701434115
 21
-2.330542986425339
 31
0.0
  0
LINE
  5
5D
330
4C
100
AcDbEntity
  8
0
  6
CONTINUOUS
 62
     9
100
AcDbLine
 10
-66.72500495470604
 20
6.169457013574661
 30
0.0
 11
-75.74620701434115
 21
6.169457013574661
 31
0.0
  0
LINE
  5
5E
330
4C
100
AcDbEntity
  8
0
  6
CONTINUOUS
 62
     9
100
AcDbLine
 10
-74.74620701434115
 20
-2.330542986425339
 30
0.0
 11
-74.74620701434115
 21
6.169457013574661
 31
0.0
  0
LINE
  5
5F
330
4C
100
AcDbEntity
  8
0
  6
CONTINUOUS
 62
     9
100
AcDbLine
 10
-74.74620701434115
 20
-7.330542986425339
 30
0.0
 11
-74.74620701434115
 21
-2.330542986425339
 31
0.0
  0
INSERT
  5
60
330
4C
100
AcDbEntity
  8
0
 62
     9
100
AcDbBlockReference
  2
_OPEN30
 10
-74.74620701434115
 20
-2.330542986425339
 30
0.0
 41
3.000002787824364
 42
2.999989273978464
 50
90.0
  0
LINE
  5
61
330
4C
100
AcDbEntity
  8
0
  6
CONTINUOUS
 62
     9
100
AcDbLine
 10
-74.74620701434115
 20
11.16945701357466
 30
0.0
 11
-74.74620701434115
 21
6.169457013574661
 31
0.0
  0
INSERT
  5
62
330
4C
100
AcDbEntity
  8
0
 62
     9
100
AcDbBlockReference
  2
_OPEN30
 10
-74.74620701434115
 20
6.169457013574661
 30
0.0
 41
3.000002787824364
 42
2.999989273978464
 50
270.0
  0
TEXT
  5
63
330
4C
100
AcDbEntity
  8
0
 62
     7
100
AcDbText
 10
-75.74620701434115
 20
-2.913370745394652
 30
0.0
 40
4.0
  1
8.5
 50
90.0
 41
0.7999999999999995
  7
FDASTYLE0
 72
     5
 11
-75.74620701434115
 21
6.686629254605342
 31
0.0
100
AcDbText
  0
TEXT
  5
64
330
4C
100
AcDbEntity
  8
0
 62
     7
100
AcDbText
 10
-78.34620701434115
 20
7.686629254605343
 30
0.0
 40
2.6
  1
±0.2
 50
90.0
 41
0.7619047619047624
  7
FDASTYLE0
 72
     5
 11
-78.34620701434115
 21
16.00662925460535
 31
0.0
100
AcDbText
  0
ENDBLK
  5
4E
330
4C
100
AcDbEntity
  8
0
100
AcDbBlockEnd
  0
BLOCK
  5
53
330
52
100
AcDbEntity
  8
0
100
AcDbBlockBegin
  2
_OPEN30
 70
     0
 71
     0
 10
0.0
 20
0.0
 30
0.0
  3
_OPEN30
  1

  0
LINE
  5
55
330
52
100
AcDbEntity
  8
0
  6
BYBLOCK
 62
     0
100
AcDbLine
 10
-1.0
 20
0.267949
 30
0.0
 11
0.0
 21
0.0
 31
0.0
  0
LINE
  5
56
330
52
100
AcDbEntity
  8
0
  6
BYBLOCK
 62
     0
100
AcDbLine
 10
0.0
 20
0.0
 30
0.0
 11
-1.0
 21
-0.267949
 31
0.0
  0
LINE
  5
57
330
52
100
AcDbEntity
  8
0
  6
BYBLOCK
 62
     0
100
AcDbLine
 10
0.0
 20
0.0
 30
0.0
 11
-1.0
 21
0.0
 31
0.0
  0
ENDBLK
  5
54
330
52
100
AcDbEntity
  8
0
100
AcDbBlockEnd
  0
BLOCK
  5
F8
330
F7
100
AcDbEntity
  8
0
100
AcDbBlockBegin
  2
_DOT
 70
     0
 71
     0
 10
0.0
 20
0.0
 30
0.0
  3
_DOT
  1

  0
LWPOLYLINE
  5
FA
330
F7
100
AcDbEntity
  8
0
  6
BYBLOCK
 62
     0
100
AcDbPolyline
 90
        2
 70
     1
 43
0.5
 10
-0.25
 20
0.0
 42
1.0
 10
0.25
 20
0.0
 42
1.0
  0
LINE
  5
FB
330
F7
100
AcDbEntity
  8
0
  6
BYBLOCK
 62
     0
100
AcDbLine
 10
-0.5
 20
0.0
 30
0.0
 11
-1.0
 21
0.0
 31
0.0
  0
ENDBLK
  5
F9
330
F7
100
AcDbEntity
  8
0
100
AcDbBlockEnd
  0
ENDSEC
  0
SECTION
  2
ENTITIES
  0
LINE
  5
65
330
1F
100
AcDbEntity
  8
0
  6
CONTINUOUS
 62
     3
100
AcDbLine
 10
14.98009049773754
 20
-4.080542986425332
 30
0.0
 11
14.98009049773754
 21
7.919457013574675
 31
0.0
  0
ARC
  5
66
330
1F
100
AcDbEntity
  8
0
  6
CONTINUOUS
 62
     3
100
AcDbCircle
 10
16.18009049773754
 20
-2.880542986425336
 30
0.0
 40
1.2
100
AcDbArc
 50
180.0
 51
269.9999999999999
  0
LINE
  5
67
330
1F
100
AcDbEntity
  8
0
  6
CONTINUOUS
 62
     3
100
AcDbLine
 10
30.34086001319621
 20
-4.080543021776688
 30
0.0
 11
30.34086001319621
 21
7.919457048925995
 31
0.0
  0
LINE
  5
68
330
1F
100
AcDbEntity
  8
0
  6
CONTINUOUS
 62
     3
100
AcDbLine
 10
30.34086001319621
 20
-4.080543021776688
 30
0.0
 11
16.18009055320881
 21
-4.080543021776702
 31
0.0
  0
ARC
  5
69
330
1F
100
AcDbEntity
  8
0
  6
CONTINUOUS
 62
     3
100
AcDbCircle
 10
16.18009049773754
 20
6.719457013574658
 30
0.0
 40
1.2
100
AcDbArc
 50
90.0
 51
180.0
  0
LINE
  5
6A
330
1F
100
AcDbEntity
  8
0
  6
CONTINUOUS
 62
     3
100
AcDbLine
 10
30.34086001319621
 20
7.919457048925995
 30
0.0
 11
16.18009055320881
 21
7.919457048926009
 31
0.0
  0
LINE
  5
6B
330
1F
100
AcDbEntity
  8
0
  6
CONTINUOUS
 62
     3
100
AcDbLine
 10
33.58009049773753
 20
4.419456952344309
 30
0.0
 11
33.58009049773753
 21
-0.580542925195001
 31
0.0
  0
LINE
  5
6C
330
1F
100
AcDbEntity
  8
0
  6
CONTINUOUS
 62
     3
100
AcDbLine
 10
33.58009049773753
 20
-0.580542925195001
 30
0.0
 11
33.48009049773754
 21
-0.580542925195001
 31
0.0
  0
LINE
  5
6D
330
1F
100
AcDbEntity
  8
0
  6
CONTINUOUS
 62
     3
100
AcDbLine
 10
31.38009049773754
 20
-3.480542986425345
 30
0.0
 11
31.38009049773754
 21
7.319457013574652
 31
0.0
  0
LINE
  5
6E
330
1F
100
AcDbEntity
  8
0
  6
CONTINUOUS
 62
     3
100
AcDbLine
 10
32.88009049773753
 20
-3.480542986425345
 30
0.0
 11
32.88009049773753
 21
7.319457013574652
 31
0.0
  0
LINE
  5
6F
330
1F
100
AcDbEntity
  8
0
  6
CONTINUOUS
 62
     3
100
AcDbLine
 10
33.48009049773754
 20
-3.380543047655689
 30
0.0
 11
33.48009049773754
 21
7.219457013574658
 31
0.0
  0
LINE
  5
70
330
1F
100
AcDbEntity
  8
0
  6
CONTINUOUS
 62
     3
100
AcDbLine
 10
33.58009049773753
 20
4.419456952344309
 30
0.0
 11
33.48009049773754
 21
4.419456952344309
 31
0.0
  0
LINE
  5
71
330
1F
100
AcDbEntity
  8
0
  6
CONTINUOUS
 62
     3
100
AcDbLine
 10
33.48009049773754
 20
1.291222462274536
 30
0.0
 11
32.88009049773753
 21
1.291222462274536
 31
0.0
  0
LINE
  5
72
330
1F
100
AcDbEntity
  8
0
  6
CONTINUOUS
 62
     3
100
AcDbLine
 10
33.48009049773754
 20
-1.436514501535317
 30
0.0
 11
32.88009049773753
 21
-1.436514501535317
 31
0.0
  0
LINE
  5
73
330
1F
100
AcDbEntity
  8
0
  6
CONTINUOUS
 62
     3
100
AcDbLine
 10
33.48009049773754
 20
5.929417225590473
 30
0.0
 11
32.88009049773753
 21
5.929417225590473
 31
0.0
  0
LINE
  5
74
330
1F
100
AcDbEntity
  8
0
  6
CONTINUOUS
 62
     3
100
AcDbLine
 10
0.1800904977375515
 20
2.919457013574661
 30
0.0
 11
-2.319909502262465
 21
2.919457013574668
 31
0.0
  0
LINE
  5
75
330
1F
100
AcDbEntity
  8
0
  6
CONTINUOUS
 62
     3
100
AcDbLine
 10
0.1800904977375408
 20
0.919457013574668
 30
0.0
 11
-7.21990950226245
 21
0.9194570135746822
 31
0.0
  0
LINE
  5
76
330
1F
100
AcDbEntity
  8
0
  6
CONTINUOUS
 62
     3
100
AcDbLine
 10
-7.319909502262448
 20
2.419457013574675
 30
0.0
 11
-7.319909502262476
 21
1.019457013574684
 31
0.0
  0
LINE
  5
77
330
1F
100
AcDbEntity
  8
0
  6
CONTINUOUS
 62
     3
100
AcDbLine
 10
-2.319909502262455
 20
2.419457013574668
 30
0.0
 11
-2.319909502262455
 21
2.919457013574668
 31
0.0
  0
LINE
  5
78
330
1F
100
AcDbEntity
  8
0
  6
CONTINUOUS
 62
     3
100
AcDbLine
 10
-2.319909502262455
 20
2.419457013574668
 30
0.0
 11
-7.319909502262448
 21
2.419457013574675
 31
0.0
  0
LINE
  5
79
330
1F
100
AcDbEntity
  8
0
  6
CONTINUOUS
 62
     3
100
AcDbLine
 10
-7.319909502262476
 20
1.019457013574684
 30
0.0
 11
-7.21990950226245
 21
0.9194570135746822
 31
0.0
  0
LINE
  5
7A
330
1F
100
AcDbEntity
  8
0
  6
CONTINUOUS
 62
     3
100
AcDbLine
 10
2.680090497737522
 20
-4.080542986425332
 30
0.0
 11
14.98009049773754
 21
-4.080542986425332
 31
0.0
  0
LINE
  5
7B
330
1F
100
AcDbEntity
  8
0
  6
CONTINUOUS
 62
     3
100
AcDbLine
 10
2.68009049773754
 20
7.919457013574668
 30
0.0
 11
14.98009049773754
 21
7.919457013574661
 31
0.0
  0
ARC
  5
7C
330
1F
100
AcDbEntity
  8
0
  6
CONTINUOUS
 62
     3
100
AcDbCircle
 10
2.680090497737551
 20
-3.580542986425328
 30
0.0
 40
0.5
100
AcDbArc
 50
180.0
 51
270.0
  0
ARC
  5
7D
330
1F
100
AcDbEntity
  8
0
  6
CONTINUOUS
 62
     3
100
AcDbCircle
 10
2.680090497737551
 20
7.419457013574668
 30
0.0
 40
0.5
100
AcDbArc
 50
89.99999999999999
 51
180.0
  0
LINE
  5
7E
330
1F
100
AcDbEntity
  8
0
  6
CONTINUOUS
 62
     3
100
AcDbLine
 10
2.180090497737551
 20
7.419457013574668
 30
0.0
 11
2.180090497737551
 21
-3.580542986425328
 31
0.0
  0
LINE
  5
7F
330
1F
100
AcDbEntity
  8
0
  6
CONTINUOUS
 62
     3
100
AcDbLine
 10
1.680090497737552
 20
4.919457013574647
 30
0.0
 11
1.680090497737537
 21
-1.080542986425353
 31
0.0
  0
LINE
  5
80
330
1F
100
AcDbEntity
  8
0
  6
CONTINUOUS
 62
     3
100
AcDbLine
 10
1.380090497737561
 20
4.419457013574647
 30
0.0
 11
1.680090497737552
 21
4.419457013574647
 31
0.0
  0
LINE
  5
81
330
1F
100
AcDbEntity
  8
0
  6
CONTINUOUS
 62
     3
100
AcDbLine
 10
1.380090497737561
 20
-0.5805429864253533
 30
0.0
 11
1.680090497737537
 21
-0.5805429864253533
 31
0.0
  0
LINE
  5
82
330
1F
100
AcDbEntity
  8
0
  6
CONTINUOUS
 62
     3
100
AcDbLine
 10
1.980090497737534
 20
-1.080542986425353
 30
0.0
 11
1.980090497737534
 21
4.919457013574647
 31
0.0
  0
LINE
  5
83
330
1F
100
AcDbEntity
  8
0
  6
CONTINUOUS
 62
     3
100
AcDbLine
 10
1.980090497737534
 20
4.819457013574638
 30
0.0
 11
2.180090497737552
 21
4.819457013574638
 31
0.0
  0
LINE
  5
84
330
1F
100
AcDbEntity
  8
0
  6
CONTINUOUS
 62
     3
100
AcDbLine
 10
1.980090497737534
 20
-0.980542986425359
 30
0.0
 11
2.180090497737495
 21
-0.980542986425359
 31
0.0
  0
LINE
  5
85
330
1F
100
AcDbEntity
  8
0
  6
CONTINUOUS
 62
     3
100
AcDbLine
 10
1.680090497737552
 20
4.919457013574647
 30
0.0
 11
1.980090497737534
 21
4.919457013574647
 31
0.0
  0
LINE
  5
86
330
1F
100
AcDbEntity
  8
0
  6
CONTINUOUS
 62
     3
100
AcDbLine
 10
1.980090497737534
 20
-1.080542986425353
 30
0.0
 11
1.680090497737537
 21
-1.080542986425353
 31
0.0
  0
LINE
  5
87
330
1F
100
AcDbEntity
  8
0
  6
CONTINUOUS
 62
     3
100
AcDbLine
 10
0.1800904977375515
 20
3.168456613254303
 30
0.0
 11
1.380090497737561
 21
3.168456613254303
 31
0.0
  0
LINE
  5
88
330
1F
100
AcDbEntity
  8
0
  6
CONTINUOUS
 62
     3
100
AcDbLine
 10
0.1800904977375515
 20
0.6704574138950115
 30
0.0
 11
1.380090497737554
 21
0.6704574138950115
 31
0.0
  0
LINE
  5
89
330
1F
100
AcDbEntity
  8
0
  6
CONTINUOUS
 62
     3
100
AcDbLine
 10
0.1800904977375373
 20
-0.8305429864253391
 30
0.0
 11
1.380090497737561
 21
-0.8305429864253391
 31
0.0
  0
LINE
  5
8A
330
1F
100
AcDbEntity
  8
0
  6
CONTINUOUS
 62
     3
100
AcDbLine
 10
0.1800904977375515
 20
4.669457013574661
 30
0.0
 11
1.380090497737561
 21
4.669457013574661
 31
0.0
  0
LINE
  5
8B
330
1F
100
AcDbEntity
  8
0
  6
CONTINUOUS
 62
     3
100
AcDbLine
 10
0.1800904977375515
 20
4.669457013574661
 30
0.0
 11
0.1800904977375515
 21
-0.8305429864253391
 31
0.0
  0
LINE
  5
8C
330
1F
100
AcDbEntity
  8
0
  6
CONTINUOUS
 62
     3
100
AcDbLine
 10
1.380090497737561
 20
4.669457013574661
 30
0.0
 11
1.380090497737561
 21
-0.8305429864253391
 31
0.0
  0
CIRCLE
  5
8D
330
1F
100
AcDbEntity
  8
0
  6
CONTINUOUS
 62
     3
100
AcDbCircle
 10
-63.74620701434115
 20
1.919457013574661
 30
0.0
 40
6.000000000000001
  0
LINE
  5
8E
330
1F
100
AcDbEntity
  8
0
  6
CONTINUOUS
 62
     3
100
AcDbLine
 10
-62.49620701434115
 20
7.787804310727413
 30
0.0
 11
-62.49620701434115
 21
6.169457013574661
 31
0.0
  0
LINE
  5
8F
330
1F
100
AcDbEntity
  8
0
  6
CONTINUOUS
 62
     3
100
AcDbLine
 10
-64.99620701434115
 20
7.787804310727413
 30
0.0
 11
-64.99620701434115
 21
6.169457013574661
 31
0.0
  0
ARC
  5
90
330
1F
100
AcDbEntity
  8
0
  6
CONTINUOUS
 62
     3
100
AcDbCircle
 10
-63.74620701434115
 20
6.169457013574661
 30
0.0
 40
1.25
100
AcDbArc
 50
180.0
 51
360.0
  0
CIRCLE
  5
91
330
1F
100
AcDbEntity
  8
0
  6
CONTINUOUS
 62
     3
100
AcDbCircle
 10
-63.74620701434115
 20
1.919457013574661
 30
0.0
 40
2.0
  0
LINE
  5
92
330
1F
100
AcDbEntity
  8
0
  6
CONTINUOUS
 62
     3
100
AcDbLine
 10
-62.49620701434115
 20
-3.948890283578091
 30
0.0
 11
-62.49620701434115
 21
-2.330542986425339
 31
0.0
  0
LINE
  5
93
330
1F
100
AcDbEntity
  8
0
  6
CONTINUOUS
 62
     3
100
AcDbLine
 10
-64.99620701434115
 20
-3.948890283578091
 30
0.0
 11
-64.99620701434115
 21
-2.330542986425339
 31
0.0
  0
ARC
  5
94
330
1F
100
AcDbEntity
  8
0
  6
CONTINUOUS
 62
     3
100
AcDbCircle
 10
-63.74620701434115
 20
-2.330542986425339
 30
0.0
 40
1.25
100
AcDbArc
 50
360.0
 51
540.0
  0
CIRCLE
  5
95
330
1F
100
AcDbEntity
  8
0
  6
CONTINUOUS
 62
     3
100
AcDbCircle
 10
-59.84620701434115
 20
1.919457013574661
 30
0.0
 40
0.6
  0
LINE
  5
96
330
1F
100
AcDbEntity
  8
0
  6
CONTINUOUS
 62
     3
100
AcDbLine
 10
-60.84620701434113
 20
2.687571588361525
 30
0.0
 11
-60.84620701434113
 21
1.15134243878779
 31
0.0
  0
LINE
  5
97
330
1F
100
AcDbEntity
  8
0
  6
CONTINUOUS
 62
     3
100
AcDbLine
 10
-66.64620701434116
 20
2.687571588361525
 30
0.0
 11
-66.64620701434116
 21
1.151342438787797
 31
0.0
  0
ARC
  5
98
330
1F
100
AcDbEntity
  8
0
  6
CONTINUOUS
 62
     3
100
AcDbCircle
 10
-63.74620701434115
 20
1.919457013574661
 30
0.0
 40
3.0
100
AcDbArc
 50
14.83511158197584
 51
165.1648884180247
  0
ARC
  5
99
330
1F
100
AcDbEntity
  8
0
  6
CONTINUOUS
 62
     3
100
AcDbCircle
 10
-63.74620701434115
 20
1.919457013574661
 30
0.0
 40
3.0
100
AcDbArc
 50
194.8351115819757
 51
345.1648884180242
  0
ARC
  5
9A
330
1F
100
AcDbEntity
  8
0
  6
CONTINUOUS
 62
     3
100
AcDbCircle
 10
-63.74620701434115
 20
1.919457013574661
 30
0.0
 40
2.75
100
AcDbArc
 50
27.0122939588656
 51
152.9877060411333
  0
ARC
  5
9B
330
1F
100
AcDbEntity
  8
0
  6
CONTINUOUS
 62
     3
100
AcDbCircle
 10
-63.74620701434115
 20
1.919457013574661
 30
0.0
 40
2.75
100
AcDbArc
 50
207.0122939588667
 51
332.9877060411343
  0
LINE
  5
9C
330
1F
100
AcDbEntity
  8
0
  6
CONTINUOUS
 62
     3
100
AcDbLine
 10
-66.19620701434114
 20
3.168456613254346
 30
0.0
 11
-66.19620701434114
 21
0.6704574138949688
 31
0.0
  0
LINE
  5
9D
330
1F
100
AcDbEntity
  8
0
  6
CONTINUOUS
 62
     3
100
AcDbLine
 10
-61.29620701434112
 20
0.6704574138950115
 30
0.0
 11
-61.29620701434112
 21
3.168456613254296
 31
0.0
  0
CIRCLE
  5
9E
330
1F
100
AcDbEntity
  8
0
  6
CONTINUOUS
 62
     3
100
AcDbCircle
 10
-63.74620701434111
 20
1.919457013574661
 30
0.0
 40
1.0
  0
LINE
  5
9F
330
1F
100
AcDbEntity
  8
0
  6
CONTINUOUS
 62
     3
100
AcDbLine
 10
-64.6122324181256
 20
2.419457013574618
 30
0.0
 11
-62.88018161055669
 21
2.419457013574618
 31
0.0
  0
LINE
  5
A0
330
1F
100
AcDbEntity
  8
0
  6
CONTINUOUS
 62
     3
100
AcDbLine
 10
-63.07950632352657
 20
6.836157704389233
 30
0.0
 11
-64.4129077051557
 21
5.502756322760089
 31
0.0
  0
LINE
  5
A1
330
1F
100
AcDbEntity
  8
0
  6
CONTINUOUS
 62
     3
100
AcDbLine
 10
-64.4129077051557
 20
6.836157704389219
 30
0.0
 11
-63.07950632352657
 21
5.502756322760124
 31
0.0
  0
CIRCLE
  5
A2
330
1F
100
AcDbEntity
  8
0
  6
CONTINUOUS
 62
     3
100
AcDbCircle
 10
-63.74620701434115
 20
6.169457013574668
 30
0.0
 40
1.2
  0
LINE
  5
A3
330
1F
100
AcDbEntity
  8
0
  6
CONTINUOUS
 62
     3
100
AcDbLine
 10
-63.07950632352657
 20
-1.663842295610781
 30
0.0
 11
-64.4129077051557
 21
-2.997243677239904
 31
0.0
  0
LINE
  5
A4
330
1F
100
AcDbEntity
  8
0
  6
CONTINUOUS
 62
     3
100
AcDbLine
 10
-64.4129077051557
 20
-1.663842295610767
 30
0.0
 11
-63.07950632352657
 21
-2.997243677239869
 31
0.0
  0
CIRCLE
  5
A5
330
1F
100
AcDbEntity
  8
0
  6
CONTINUOUS
 62
     3
100
AcDbCircle
 10
-63.74620701434115
 20
-2.330542986425318
 30
0.0
 40
1.2
  0
LINE
  5
A6
330
1F
100
AcDbEntity
  8
LAYER0112
  6
CONTINUOUS
 62
     3
100
AcDbLine
 10
31.38009049773754
 20
-3.480542986425345
 30
0.0
 11
30.34086001319621
 21
-4.080542986425339
 31
0.0
  0
LINE
  5
A7
330
1F
100
AcDbEntity
  8
LAYER0112
  6
CONTINUOUS
 62
     3
100
AcDbLine
 10
31.38009049773754
 20
7.319457013574652
 30
0.0
 11
30.34086001319621
 21
7.919457013574647
 31
0.0
  0
LINE
  5
A8
330
1F
100
AcDbEntity
  8
LAYER0112
  6
CONTINUOUS
 62
     3
100
AcDbLine
 10
32.83009049773754
 20
-3.480542986425345
 30
0.0
 11
32.88009049773753
 21
-3.430542986425348
 31
0.0
  0
LINE
  5
A9
330
1F
100
AcDbEntity
  8
LAYER0112
  6
CONTINUOUS
 62
     3
100
AcDbLine
 10
32.88009049773753
 20
-3.480542986425345
 30
0.0
 11
33.38009049773753
 21
-3.480542986425345
 31
0.0
  0
LINE
  5
AA
330
1F
100
AcDbEntity
  8
LAYER0112
  6
CONTINUOUS
 62
     3
100
AcDbLine
 10
31.38009049773754
 20
-3.480542986425345
 30
0.0
 11
32.83009049773754
 21
-3.480542986425345
 31
0.0
  0
LINE
  5
AB
330
1F
100
AcDbEntity
  8
LAYER0112
  6
CONTINUOUS
 62
     3
100
AcDbLine
 10
32.83009049773754
 20
7.319457013574652
 30
0.0
 11
32.88009049773754
 21
7.269457013574655
 31
0.0
  0
LINE
  5
AC
330
1F
100
AcDbEntity
  8
LAYER0112
  6
CONTINUOUS
 62
     3
100
AcDbLine
 10
32.88009049773754
 20
7.319457013574652
 30
0.0
 11
33.38009049773754
 21
7.319457013574652
 31
0.0
  0
LINE
  5
AD
330
1F
100
AcDbEntity
  8
LAYER0112
  6
CONTINUOUS
 62
     3
100
AcDbLine
 10
31.38009049773754
 20
7.319457013574652
 30
0.0
 11
32.83009049773754
 21
7.319457013574652
 31
0.0
  0
LINE
  5
AE
330
1F
100
AcDbEntity
  8
LAYER0001
  6
CONTINUOUS
 62
     3
100
AcDbLine
 10
77.35427947174969
 20
4.919457013574661
 30
0.0
 11
54.30601212678121
 21
4.919457013574661
 31
0.0
  0
LINE
  5
AF
330
1F
100
AcDbEntity
  8
LAYER0001
  6
CONTINUOUS
 62
     3
100
AcDbLine
 10
77.35427947174969
 20
5.719457013574658
 30
0.0
 11
54.15685958440834
 21
5.719457013574663
 31
0.0
  0
LINE
  5
B0
330
1F
100
AcDbEntity
  8
LAYER0001
  6
CONTINUOUS
 62
     3
100
AcDbLine
 10
77.35427947174971
 20
5.719457013574658
 30
0.0
 11
77.35427947174969
 21
4.919457013574661
 31
0.0
  0
LINE
  5
B1
330
1F
100
AcDbEntity
  8
LAYER0001
  6
CONTINUOUS
 62
     3
100
AcDbLine
 10
77.35427947174969
 20
-1.880542986425343
 30
0.0
 11
54.30601212678123
 21
-1.880542986425343
 31
0.0
  0
LINE
  5
B2
330
1F
100
AcDbEntity
  8
LAYER0001
  6
CONTINUOUS
 62
     3
100
AcDbLine
 10
77.35427947174969
 20
-1.080542986425346
 30
0.0
 11
54.15685958440834
 21
-1.080542986425341
 31
0.0
  0
LINE
  5
B3
330
1F
100
AcDbEntity
  8
LAYER0001
  6
CONTINUOUS
 62
     3
100
AcDbLine
 10
77.35427947174969
 20
-1.080542986425346
 30
0.0
 11
77.35427947174969
 21
-1.880542986425343
 31
0.0
  0
LINE
  5
B4
330
1F
100
AcDbEntity
  8
LAYER0001
  6
CONTINUOUS
 62
     3
100
AcDbLine
 10
33.48009049773754
 20
-1.080542986425339
 30
0.0
 11
53.49112531867407
 21
-1.080542986425341
 31
0.0
  0
LINE
  5
B5
330
1F
100
AcDbEntity
  8
LAYER0001
  6
CONTINUOUS
 62
     3
100
AcDbLine
 10
33.48009049773754
 20
-1.880542986425336
 30
0.0
 11
53.64027786104695
 21
-1.880542986425343
 31
0.0
  0
LINE
  5
B6
330
1F
100
AcDbEntity
  8
LAYER0001
  6
CONTINUOUS
 62
     3
100
AcDbLine
 10
33.48009049773754
 20
5.719457013574658
 30
0.0
 11
53.49112531867407
 21
5.719457013574672
 31
0.0
  0
LINE
  5
B7
330
1F
100
AcDbEntity
  8
LAYER0001
  6
CONTINUOUS
 62
     3
100
AcDbLine
 10
33.48009049773754
 20
4.919457013574661
 30
0.0
 11
53.64027786104695
 21
4.919457013574661
 31
0.0
  0
LINE
  5
B8
330
1F
100
AcDbEntity
  8
LAYER0001
  6
CONTINUOUS
 62
     3
100
AcDbLine
 10
33.48009049773754
 20
-3.38054298642535
 30
0.0
 11
33.38009049773753
 21
-3.480542986425345
 31
0.0
  0
LINE
  5
B9
330
1F
100
AcDbEntity
  8
LAYER0001
  6
CONTINUOUS
 62
     3
100
AcDbLine
 10
33.48009049773754
 20
7.219457013574658
 30
0.0
 11
33.38009049773754
 21
7.319457013574652
 31
0.0
  0
LINE
  5
BA
330
1F
100
AcDbEntity
  8
0
  6
CONTINUOUS
 62
     9
100
AcDbLine
 10
77.35427947174969
 20
5.519457013574655
 30
0.0
 11
81.95351671137583
 21
5.519457013574655
 31
0.0
  0
LINE
  5
BB
330
1F
100
AcDbEntity
  8
0
  6
CONTINUOUS
 62
     9
100
AcDbLine
 10
77.35427947174971
 20
5.119457013574664
 30
0.0
 11
81.95351671137583
 21
5.119457013574664
 31
0.0
  0
LINE
  5
BC
330
1F
100
AcDbEntity
  8
0
  6
CONTINUOUS
 62
     9
100
AcDbLine
 10
77.35427947174969
 20
5.219457013574658
 30
0.0
 11
81.95351671137583
 21
5.219457013574658
 31
0.0
  0
LINE
  5
BD
330
1F
100
AcDbEntity
  8
0
  6
CONTINUOUS
 62
     9
100
AcDbLine
 10
77.35427947174969
 20
5.419457013574661
 30
0.0
 11
81.95351671137583
 21
5.419457013574661
 31
0.0
  0
LINE
  5
BE
330
1F
100
AcDbEntity
  8
0
  6
CONTINUOUS
 62
     9
100
AcDbLine
 10
77.35427947174969
 20
-1.280542986425349
 30
0.0
 11
81.95351671137583
 21
-1.280542986425349
 31
0.0
  0
LINE
  5
BF
330
1F
100
AcDbEntity
  8
0
  6
CONTINUOUS
 62
     9
100
AcDbLine
 10
77.35427947174969
 20
-1.680542986425341
 30
0.0
 11
81.95351671137583
 21
-1.680542986425341
 31
0.0
  0
LINE
  5
C0
330
1F
100
AcDbEntity
  8
0
  6
CONTINUOUS
 62
     9
100
AcDbLine
 10
77.35427947174969
 20
-1.580542986425346
 30
0.0
 11
81.95351671137583
 21
-1.580542986425332
 31
0.0
  0
LINE
  5
C1
330
1F
100
AcDbEntity
  8
0
  6
CONTINUOUS
 62
     9
100
AcDbLine
 10
77.35427947174969
 20
-1.380542986425343
 30
0.0
 11
81.95351671137583
 21
-1.380542986425343
 31
0.0
  0
LINE
  5
C2
330
1F
100
AcDbEntity
  8
0
  6
CONTINUOUS
 62
     9
100
AcDbLine
 10
53.36958492735151
 20
6.371355476122954
 30
0.0
 11
53.80035415812074
 21
4.060865965633443
 31
0.0
  0
LINE
  5
C3
330
1F
100
AcDbEntity
  8
0
  6
CONTINUOUS
 62
     9
100
AcDbLine
 10
54.03531919308577
 20
6.371355476122954
 30
0.0
 11
54.466088423855
 21
4.060865965633443
 31
0.0
  0
LINE
  5
C4
330
1F
100
AcDbEntity
  8
0
  6
CONTINUOUS
 62
     9
100
AcDbLine
 10
53.36958492735151
 20
-0.4286445238770433
 30
0.0
 11
53.80035415812074
 21
-2.739134034366554
 31
0.0
  0
LINE
  5
C5
330
1F
100
AcDbEntity
  8
0
  6
CONTINUOUS
 62
     9
100
AcDbLine
 10
54.03531919308577
 20
-0.4286445238770433
 30
0.0
 11
54.466088423855
 21
-2.739134034366554
 31
0.0
  0
LINE
  5
C6
330
1F
100
AcDbEntity
  8
0
  6
CONTINUOUS
 62
     9
100
AcDbLine
 10
14.98009049773754
 20
8.419457013574675
 30
0.0
 11
14.98009049773754
 21
24.91945701357466
 31
0.0
  0
LINE
  5
C7
330
1F
100
AcDbEntity
  8
0
  6
CONTINUOUS
 62
     9
100
AcDbLine
 10
81.95351671137583
 20
6.019457013574655
 30
0.0
 11
81.95351671137583
 21
32.91945701357466
 31
0.0
  0
LINE
  5
C8
330
1F
100
AcDbEntity
  8
0
  6
CONTINUOUS
 62
     9
100
AcDbLine
 10
77.35427947174971
 20
6.219457013574658
 30
0.0
 11
77.35427947174971
 21
24.91945701357466
 31
0.0
  0
LINE
  5
C9
330
1F
100
AcDbEntity
  8
0
  6
CONTINUOUS
 62
     9
100
AcDbLine
 10
77.35427947174971
 20
23.91945701357466
 30
0.0
 11
81.95351671137583
 21
23.91945701357466
 31
0.0
  0
LINE
  5
CA
330
1F
100
AcDbEntity
  8
0
  6
CONTINUOUS
 62
     9
100
AcDbLine
 10
-7.319909502262448
 20
2.919457013574675
 30
0.0
 11
-7.319909502262448
 21
24.91945701357466
 31
0.0
  0
LINE
  5
CB
330
1F
100
AcDbEntity
  8
0
  6
CONTINUOUS
 62
     9
100
AcDbLine
 10
-2.319909502262465
 20
3.419457013574668
 30
0.0
 11
-2.319909502262465
 21
16.91945701357466
 31
0.0
  0
LINE
  5
CC
330
1F
100
AcDbEntity
  8
0
  6
CONTINUOUS
 62
     9
100
AcDbLine
 10
-7.319909502262448
 20
15.91945701357466
 30
0.0
 11
-2.319909502262465
 21
15.91945701357466
 31
0.0
  0
LINE
  5
CD
330
1F
100
AcDbEntity
  8
0
  6
CONTINUOUS
 62
     9
100
AcDbLine
 10
14.98009049773754
 20
8.419457013574661
 30
0.0
 11
14.98009049773754
 21
13.24434760056995
 31
0.0
  0
LINE
  5
CE
330
1F
100
AcDbEntity
  8
0
  6
CONTINUOUS
 62
     9
100
AcDbLine
 10
0.1800904977375479
 20
5.169457013574675
 30
0.0
 11
0.1800904977375479
 21
24.91945701357466
 31
0.0
  0
LINE
  5
CF
330
1F
100
AcDbEntity
  8
0
  6
CONTINUOUS
 62
     9
100
AcDbLine
 10
2.180090497737551
 20
7.919457013574668
 30
0.0
 11
2.180090497737551
 21
32.91945701357466
 31
0.0
  0
LINE
  5
D0
330
1F
100
AcDbEntity
  8
0
  6
CONTINUOUS
 62
     9
100
AcDbLine
 10
0.1800904977375479
 20
23.91945701357466
 30
0.0
 11
2.180090497737551
 21
23.91945701357466
 31
0.0
  0
LINE
  5
D1
330
1F
100
AcDbEntity
  8
0
  6
CONTINUOUS
 62
     9
100
AcDbLine
 10
43.25275219590097
 20
15.91945701357466
 30
0.0
 11
62.45275219590096
 21
15.91945701357466
 31
0.0
  0
LINE
  5
D2
330
1F
100
AcDbEntity
  8
0
  6
CONTINUOUS
 62
     9
100
AcDbLine
 10
43.25275219590095
 20
-12.08054298642537
 30
0.0
 11
69.7705083131173
 21
-12.0805429864254
 31
0.0
  0
LINE
  5
D3
330
1F
100
AcDbEntity
  8
0
  6
CONTINUOUS
 62
     9
100
AcDbLine
 10
32.98096249281565
 20
-21.49563868937245
 30
0.0
 11
80.10407283994221
 21
-21.49563868937245
 31
0.0
  0
LINE
  5
D4
330
1F
100
AcDbEntity
  8
0
  6
DIVIDE
 62
     9
100
AcDbLine
 10
16.41237557893589
 20
7.919457048926009
 30
0.0
 11
16.41237557893589
 21
-4.080543021776701
 31
0.0
  0
LINE
  5
D5
330
1F
100
AcDbEntity
  8
0
  6
DIVIDE
 62
     9
100
AcDbLine
 10
29.84085995196589
 20
7.870509851986277
 30
0.0
 11
29.84085995196588
 21
-4.080543021776688
 31
0.0
  0
LINE
  5
D6
330
1F
100
AcDbEntity
  8
0
  6
CENTER
 62
     9
100
AcDbLine
 10
-9.497597383963097
 20
1.919457013574668
 30
0.0
 11
35.48009049773754
 21
1.919457013574668
 31
0.0
  0
LINE
  5
D7
330
1F
100
AcDbEntity
  8
0
  6
CENTER
 62
     9
100
AcDbLine
 10
0.1800904977375515
 20
4.419457013574661
 30
0.0
 11
1.380090497737561
 21
4.419457013574661
 31
0.0
  0
LINE
  5
D8
330
1F
100
AcDbEntity
  8
0
  6
CENTER
 62
     9
100
AcDbLine
 10
0.1800904977375515
 20
-0.5805429864253391
 30
0.0
 11
1.380090497737561
 21
-0.5805429864253391
 31
0.0
  0
ARC
  5
D9
330
1F
100
AcDbEntity
  8
0
  6
CENTER
 62
     9
100
AcDbCircle
 10
-63.74620701434115
 20
1.919457013574661
 30
0.0
 40
2.500000000000001
100
AcDbArc
 50
11.47834095453328
 51
168.5216590454675
  0
ARC
  5
DA
330
1F
100
AcDbEntity
  8
0
  6
CENTER
 62
     9
100
AcDbCircle
 10
-63.74620701434115
 20
1.919457013574661
 30
0.0
 40
2.500000000000001
100
AcDbArc
 50
191.4783409545325
 51
348.5216590454666
  0
LINE
  5
DB
330
1F
100
AcDbEntity
  8
0
  6
CENTER
 62
     9
100
AcDbLine
 10
-63.74620701434115
 20
-5.080542986425339
 30
0.0
 11
-63.74620701434115
 21
8.919457013574661
 31
0.0
  0
LINE
  5
DC
330
1F
100
AcDbEntity
  8
0
  6
CENTER
 62
     9
100
AcDbLine
 10
-56.74620701434115
 20
1.919457013574661
 30
0.0
 11
-70.74620701434115
 21
1.919457013574661
 31
0.0
  0
LINE
  5
DD
330
1F
100
AcDbEntity
  8
0
  6
CENTER
 62
     9
100
AcDbLine
 10
-65.72500495470604
 20
6.169457013574661
 30
0.0
 11
-61.78422110943293
 21
6.169457013574661
 31
0.0
  0
LINE
  5
DE
330
1F
100
AcDbEntity
  8
0
  6
CENTER
 62
     9
100
AcDbLine
 10
-65.72500495470604
 20
-2.330542986425339
 30
0.0
 11
-61.78422110943293
 21
-2.330542986425339
 31
0.0
  0
LINE
  5
DF
330
1F
100
AcDbEntity
  8
0
  6
CONTINUOUS
 62
     9
100
AcDbLine
 10
14.98009049773754
 20
23.91945701357466
 30
0.0
 11
33.48009049773754
 21
23.91945701357466
 31
0.0
  0
INSERT
  5
E0
330
1F
100
AcDbEntity
  8
0
 62
     9
100
AcDbBlockReference
  2
_OPEN30
 10
14.98009049773754
 20
23.91945701357466
 30
0.0
 41
3.000002787824364
 42
2.999989273978464
 50
180.0
  0
INSERT
  5
E1
330
1F
100
AcDbEntity
  8
0
 62
     9
100
AcDbBlockReference
  2
_OPEN30
 10
33.48009049773754
 20
23.91945701357466
 30
0.0
 41
3.000002787824364
 42
2.999989273978464
 50
360.0
  0
LINE
  5
E2
330
1F
100
AcDbEntity
  8
0
  6
CONTINUOUS
 62
     9
100
AcDbLine
 10
33.48009049773754
 20
31.91945701357466
 30
0.0
 11
81.95351671137583
 21
31.91945701357466
 31
0.0
  0
INSERT
  5
E3
330
1F
100
AcDbEntity
  8
0
 62
     9
100
AcDbBlockReference
  2
_OPEN30
 10
33.48009049773754
 20
31.91945701357466
 30
0.0
 41
3.000002787824364
 42
2.999989273978464
 50
180.0
  0
INSERT
  5
E4
330
1F
100
AcDbEntity
  8
0
 62
     9
100
AcDbBlockReference
  2
_OPEN30
 10
81.95351671137583
 20
31.91945701357466
 30
0.0
 41
3.000002787824364
 42
2.999989273978464
 50
360.0
  0
LINE
  5
E5
330
1F
100
AcDbEntity
  8
0
  6
CONTINUOUS
 62
     9
100
AcDbLine
 10
-7.319909502262448
 20
23.91945701357466
 30
0.0
 11
0.1800904977375479
 21
23.91945701357466
 31
0.0
  0
INSERT
  5
E6
330
1F
100
AcDbEntity
  8
0
 62
     9
100
AcDbBlockReference
  2
_OPEN30
 10
-7.319909502262448
 20
23.91945701357466
 30
0.0
 41
3.000002787824364
 42
2.999989273978464
 50
180.0
  0
INSERT
  5
E7
330
1F
100
AcDbEntity
  8
0
 62
     9
100
AcDbBlockReference
  2
_OPEN30
 10
0.1800904977375479
 20
23.91945701357466
 30
0.0
 41
3.000002787824364
 42
2.999989273978464
 50
360.0
  0
LINE
  5
E8
330
1F
100
AcDbEntity
  8
0
  6
CONTINUOUS
 62
     9
100
AcDbLine
 10
65.94727740883572
 20
23.91945701357466
 30
0.0
 11
77.35427947174971
 21
23.91945701357466
 31
0.0
  0
INSERT
  5
E9
330
1F
100
AcDbEntity
  8
0
 62
     9
100
AcDbBlockReference
  2
_OPEN30
 10
77.35427947174971
 20
23.91945701357466
 30
0.0
 41
3.000002787824364
 42
2.999989273978464
 50
360.0
  0
LINE
  5
EA
330
1F
100
AcDbEntity
  8
0
  6
CONTINUOUS
 62
     9
100
AcDbLine
 10
84.45351671137583
 20
23.91945701357466
 30
0.0
 11
81.95351671137583
 21
23.91945701357466
 31
0.0
  0
INSERT
  5
EB
330
1F
100
AcDbEntity
  8
0
 62
     9
100
AcDbBlockReference
  2
_OPEN30
 10
81.95351671137583
 20
23.91945701357466
 30
0.0
 41
3.000002787824364
 42
2.999989273978464
 50
180.0
  0
LINE
  5
EC
330
1F
100
AcDbEntity
  8
0
  6
CONTINUOUS
 62
     9
100
AcDbLine
 10
43.25275219590097
 20
15.91945701357466
 30
0.0
 11
38.69237036343043
 21
5.719457013574662
 31
0.0
  0
INSERT
  5
ED
330
1F
100
AcDbEntity
  8
0
 62
     9
100
AcDbBlockReference
  2
_OPEN30
 10
38.69237036343043
 20
5.719457013574662
 30
0.0
 41
3.000002787824364
 42
2.999989273978464
 50
245.9107601417355
  0
LINE
  5
EE
330
1F
100
AcDbEntity
  8
0
  6
CONTINUOUS
 62
     9
100
AcDbLine
 10
43.25275219590095
 20
-12.08054298642537
 30
0.0
 11
38.69237036343041
 21
-1.880542986425372
 31
0.0
  0
INSERT
  5
EF
330
1F
100
AcDbEntity
  8
0
 62
     9
100
AcDbBlockReference
  2
_OPEN30
 10
38.69237036343041
 20
-1.880542986425372
 30
0.0
 41
3.000002787824364
 42
2.999989273978464
 50
114.0892398582645
  0
LINE
  5
F0
330
1F
100
AcDbEntity
  8
0
  6
CONTINUOUS
 62
     9
100
AcDbLine
 10
2.180090497737551
 20
23.91945701357466
 30
0.0
 11
8.151077461364608
 21
23.91945701357466
 31
0.0
  0
INSERT
  5
F1
330
1F
100
AcDbEntity
  8
0
 62
     9
100
AcDbBlockReference
  2
_OPEN30
 10
2.180090497737551
 20
23.91945701357466
 30
0.0
 41
3.000002787824364
 42
2.999989273978464
 50
180.0
  0
LINE
  5
F2
330
1F
100
AcDbEntity
  8
0
  6
CONTINUOUS
 62
     9
100
AcDbLine
 10
-2.319909502262465
 20
15.91945701357466
 30
0.0
 11
4.554467131114381
 21
15.91945701357466
 31
0.0
  0
INSERT
  5
F3
330
1F
100
AcDbEntity
  8
0
 62
     9
100
AcDbBlockReference
  2
_OPEN30
 10
-2.319909502262465
 20
15.91945701357466
 30
0.0
 41
3.000002787824364
 42
2.999989273978464
 50
180.0
  0
LINE
  5
F4
330
1F
100
AcDbEntity
  8
0
  6
CONTINUOUS
 62
     9
100
AcDbLine
 10
-7.319909502262448
 20
15.91945701357466
 30
0.0
 11
-13.55031824507427
 21
15.91945701357466
 31
0.0
  0
INSERT
  5
F5
330
1F
100
AcDbEntity
  8
0
 62
     9
100
AcDbBlockReference
  2
_OPEN30
 10
-7.319909502262448
 20
15.91945701357466
 30
0.0
 41
3.000002787824364
 42
2.999989273978464
 50
360.0
  0
LINE
  5
F6
330
1F
100
AcDbEntity
  8
0
  6
CONTINUOUS
 62
     9
100
AcDbLine
 10
32.98096249281565
 20
-21.49563868937245
 30
0.0
 11
23.46176087123244
 21
-0.3469421694430894
 31
0.0
  0
INSERT
  5
FC
330
1F
100
AcDbEntity
  8
0
 62
     9
100
AcDbBlockReference
  2
_DOT
 10
23.46176087123244
 20
-0.3469421694430894
 30
0.0
 41
2.5
 42
2.5
 50
114.232900309862
  0
TEXT
  5
FD
330
1F
100
AcDbEntity
  8
0
 62
     7
100
AcDbText
 10
17.4809709177984
 20
25.18494978682684
 30
0.0
 40
4.0
  1
18.5
 41
0.7999999999999998
  7
FDASTYLE0
 72
     5
 11
30.2809709177984
 21
25.18494978682684
 31
0.0
100
AcDbText
  0
TEXT
  5
FE
330
1F
100
AcDbEntity
  8
0
 62
     7
100
AcDbText
 10
49.91680360455668
 20
32.91945701357466
 30
0.0
 40
4.0
  1
140
 41
0.7999999999999995
  7
FDASTYLE0
 72
     5
 11
59.51680360455667
 21
32.91945701357466
 31
0.0
100
AcDbText
  0
TEXT
  5
FF
330
1F
100
AcDbEntity
  8
0
 62
     7
100
AcDbText
 10
60.08085136931153
 20
35.65721055440007
 30
0.0
 40
2.6
  1
±10
 41
0.7499999999999993
  7
FDASTYLE0
 72
     5
 11
66.32085136931153
 21
35.65721055440007
 31
0.0
100
AcDbText
  0
TEXT
  5
100
330
1F
100
AcDbEntity
  8
0
 62
     7
100
AcDbText
 10
66.90609049773754
 20
24.91945701357466
 30
0.0
 40
4.0
  1
10
 41
0.8000000000000007
  7
FDASTYLE0
 72
     5
 11
73.30609049773754
 21
24.91945701357466
 31
0.0
100
AcDbText
  0
TEXT
  5
101
330
1F
100
AcDbEntity
  8
0
 62
     7
100
AcDbText
 10
73.80609049773754
 20
27.12195701357466
 30
0.0
 40
2.6
  1
±2
 41
0.7272727272727266
  7
FDASTYLE0
 72
     5
 11
77.96609049773754
 21
27.12195701357466
 31
0.0
100
AcDbText
  0
TEXT
  5
102
330
1F
100
AcDbEntity
  8
0
 62
     7
100
AcDbText
 10
-6.419909502262454
 20
16.41945701357466
 30
0.0
 40
4.0
  1
5
 41
0.7999999999999999
  7
FDASTYLE0
 72
     5
 11
-3.219909502262455
 21
16.41945701357466
 31
0.0
100
AcDbText
  0
TEXT
  5
103
330
1F
100
AcDbEntity
  8
0
 62
     7
100
AcDbText
 10
-8.369909502262448
 20
25.41945701357466
 30
0.0
 40
4.0
  1
7.5
 41
0.8000000000000002
  7
FDASTYLE0
 72
     5
 11
1.230090497737553
 21
25.41945701357466
 31
0.0
100
AcDbText
  0
TEXT
  5
104
330
1F
100
AcDbEntity
  8
0
 62
     7
100
AcDbText
 10
3.580090497737557
 20
25.41945701357466
 30
0.0
 40
4.0
  1
2
 41
0.8000000000000002
  7
FDASTYLE0
 72
     5
 11
6.780090497737557
 21
25.41945701357466
 31
0.0
100
AcDbText
  0
TEXT
  5
105
330
1F
100
AcDbEntity
  8
0
 62
     7
100
AcDbText
 10
43.25275219590097
 20
16.91945701357466
 30
0.0
 40
4.0
  1
（+）ＲＥＤ
 41
0.6857142857142858
  7
FDASTYLE0
 72
     5
 11
62.45275219590097
 21
16.91945701357466
 31
0.0
100
AcDbText
  0
TEXT
  5
106
330
1F
100
AcDbEntity
  8
0
 62
     7
100
AcDbText
 10
43.25275219590097
 20
-11.08054298642537
 30
0.0
 40
4.0
  1
（-）ＢＬＡＣＫ
 41
0.6808510638297871
  7
FDASTYLE0
 72
     5
 11
68.85275219590096
 21
-11.08054298642537
 31
0.0
100
AcDbText
  0
TEXT
  5
107
330
1F
100
AcDbEntity
  8
0
 62
     7
100
AcDbText
 10
-18.31990950226246
 20
11.91945701357467
 30
0.0
 40
4.0
  1
1.5
 50
90.0
 41
0.7999999999999999
  7
FDASTYLE0
 72
     5
 11
-18.31990950226246
 21
21.51945701357467
 31
0.0
100
AcDbText
  0
TEXT
  5
108
330
1F
100
AcDbEntity
  8
0
 62
     7
100
AcDbText
 10
-28.31990950226246
 20
11.91945701357467
 30
0.0
 40
4.0
  1
φ2
 50
90.0
 41
0.7272727272727269
  7
FDASTYLE0
 72
     5
 11
-28.31990950226246
 21
18.31945701357466
 31
0.0
100
AcDbText
  0
TEXT
  5
109
330
1F
100
AcDbEntity
  8
0
 62
     7
100
AcDbText
 10
-38.31990950226245
 20
12.91945701357468
 30
0.0
 40
4.0
  1
φ6
 50
90.0
 41
0.7272727272727271
  7
FDASTYLE0
 72
     5
 11
-38.31990950226245
 21
19.31945701357467
 31
0.0
100
AcDbText
  0
TEXT
  5
10A
330
1F
100
AcDbEntity
  8
0
 62
     7
100
AcDbText
 10
-48.31990950226245
 20
-2.880542986425329
 30
0.0
 40
4.0
  1
φ12
 50
90.0
 41
0.7499999999999996
  7
FDASTYLE0
 72
     5
 11
-48.31990950226245
 21
6.719457013574665
 31
0.0
100
AcDbText
  0
TEXT
  5
10B
330
1F
100
AcDbEntity
  8
0
 62
     7
100
AcDbText
 10
-20.91990950226246
 20
22.51945701357467
 30
0.0
 40
2.6
  1
±0.1
 50
90.0
 41
0.7619047619047619
  7
FDASTYLE0
 72
     5
 11
-20.91990950226246
 21
30.83945701357467
 31
0.0
100
AcDbText
  0
TEXT
  5
10C
330
1F
100
AcDbEntity
  8
0
 62
     7
100
AcDbText
 10
-28.11990950226246
 20
19.31945701357467
 30
0.0
 40
2.6
  1
-0.020
 50
90.0
 41
0.7999999999999999
  7
FDASTYLE0
 72
     5
 11
-28.11990950226246
 21
31.79945701357467
 31
0.0
100
AcDbText
  0
TEXT
  5
10D
330
1F
100
AcDbEntity
  8
0
 62
     7
100
AcDbText
 10
-30.91990950226246
 20
19.31945701357467
 30
0.0
 40
2.6
  1
+0.005
 50
90.0
 41
0.7999999999999999
  7
FDASTYLE0
 72
     5
 11
-30.91990950226246
 21
31.79945701357467
 31
0.0
100
AcDbText
  0
TEXT
  5
10E
330
1F
100
AcDbEntity
  8
0
 62
     7
100
AcDbText
 10
-38.11990950226245
 20
20.31945701357467
 30
0.0
 40
2.6
  1
-0.045
 50
90.0
 41
0.7999999999999999
  7
FDASTYLE0
 72
     5
 11
-38.11990950226245
 21
32.79945701357467
 31
0.0
100
AcDbText
  0
TEXT
  5
10F
330
1F
100
AcDbEntity
  8
0
 62
     7
100
AcDbText
 10
-40.91990950226244
 20
20.31945701357467
 30
0.0
 40
2.6
  1
+0.005
 50
90.0
 41
0.7999999999999999
  7
FDASTYLE0
 72
     5
 11
-40.91990950226244
 21
32.79945701357467
 31
0.0
100
AcDbText
  0
TEXT
  5
110
330
1F
100
AcDbEntity
  8
0
 62
     7
100
AcDbText
 10
-50.91990950226244
 20
7.719457013574665
 30
0.0
 40
2.6
  1
±0.2
 50
90.0
 41
0.7619047619047619
  7
FDASTYLE0
 72
     5
 11
-50.91990950226244
 21
16.03945701357467
 31
0.0
100
AcDbText
  0
TEXT
  5
111
330
1F
100
AcDbEntity
  8
0
 62
     7
100
AcDbText
 10
34.46357466063343
 20
-20.66921877202795
 30
0.0
 40
4.0
  1
NAMEPLATE　LOT№
 41
0.7777777777777778
  7
FDASTYLE0
 72
     5
 11
79.26357466063344
 21
-20.66921877202795
 31
0.0
100
AcDbText
  0
TEXT
  5
112
330
1F
100
AcDbEntity
  8
0
 62
     7
100
AcDbText
 10
-65.38479638009049
 20
-30.0341628959276
 30
0.0
 40
4.0
  1
※THE CABLE LOCATION IS FOR REFERENCE ONLY.
 41
0.7962085308056872
  7
FDASTYLE0
 72
     5
 11
69.01520361990951
 21
-30.0341628959276
 31
0.0
100
AcDbText
  0
TEXT
  5
113
330
1F
100
AcDbEntity
  8
0
 62
     7
100
AcDbText
 10
-38.19047273096026
 20
-13.08054298642533
 30
0.0
 40
4.0
  1
Ｍ5.5（Ｐ＝0.5）
 41
0.7333333333333334
  7
FDASTYLE0
 72
     5
 11
-2.990472730960256
 21
-13.08054298642533
 31
0.0
100
AcDbText
  0
LINE
  5
114
330
1F
100
AcDbEntity
  8
0
  6
CONTINUOUS
 62
     9
100
AcDbLine
 10
-8.319909502262448
 20
2.419457013574675
 30
0.0
 11
-18.31990950226246
 21
2.419457013574675
 31
0.0
  0
LINE
  5
115
330
1F
100
AcDbEntity
  8
0
  6
CONTINUOUS
 62
     9
100
AcDbLine
 10
-17.31990950226246
 20
0.9194570748050133
 30
0.0
 11
-17.31990950226246
 21
2.419457013574675
 31
0.0
  0
LINE
  5
116
330
1F
100
AcDbEntity
  8
0
  6
CONTINUOUS
 62
     9
100
AcDbLine
 10
-8.21990950226245
 20
0.9194570748050133
 30
0.0
 11
-28.31990950226246
 21
0.9194570748050133
 31
0.0
  0
LINE
  5
117
330
1F
100
AcDbEntity
  8
0
  6
CONTINUOUS
 62
     9
100
AcDbLine
 10
-3.319909502262455
 20
2.919457013574668
 30
0.0
 11
-28.31990950226246
 21
2.919457013574668
 31
0.0
  0
LINE
  5
118
330
1F
100
AcDbEntity
  8
0
  6
CONTINUOUS
 62
     9
100
AcDbLine
 10
-27.31990950226246
 20
0.9194570748050133
 30
0.0
 11
-27.31990950226246
 21
2.919457013574668
 31
0.0
  0
LINE
  5
119
330
1F
100
AcDbEntity
  8
0
  6
CONTINUOUS
 62
     9
100
AcDbLine
 10
0.6800904977375373
 20
-1.080542986425353
 30
0.0
 11
-38.31990950226245
 21
-1.080542986425353
 31
0.0
  0
LINE
  5
11A
330
1F
100
AcDbEntity
  8
0
  6
CONTINUOUS
 62
     9
100
AcDbLine
 10
0.6800904977375515
 20
4.919457013574647
 30
0.0
 11
-38.31990950226245
 21
4.919457013574647
 31
0.0
  0
LINE
  5
11B
330
1F
100
AcDbEntity
  8
0
  6
CONTINUOUS
 62
     9
100
AcDbLine
 10
-37.31990950226245
 20
-1.080542986425353
 30
0.0
 11
-37.31990950226245
 21
4.919457013574647
 31
0.0
  0
LINE
  5
11C
330
1F
100
AcDbEntity
  8
0
  6
CONTINUOUS
 62
     9
100
AcDbLine
 10
1.680090497737522
 20
-4.080542986425332
 30
0.0
 11
-48.31990950226245
 21
-4.080542986425332
 31
0.0
  0
LINE
  5
11D
330
1F
100
AcDbEntity
  8
0
  6
CONTINUOUS
 62
     9
100
AcDbLine
 10
1.680090497737551
 20
7.919457013574668
 30
0.0
 11
-48.31990950226245
 21
7.919457013574668
 31
0.0
  0
LINE
  5
11E
330
1F
100
AcDbEntity
  8
0
  6
CONTINUOUS
 62
     9
100
AcDbLine
 10
-2.562227124579227
 20
-14.08054298642533
 30
0.0
 11
-38.76639500937385
 21
-14.08054298642533
 31
0.0
  0
LINE
  5
11F
330
1F
100
AcDbEntity
  8
0
  6
CONTINUOUS
 62
     9
100
AcDbLine
 10
-17.31990950226246
 20
30.15945701357466
 30
0.0
 11
-17.31990950226246
 21
2.419457013574675
 31
0.0
  0
INSERT
  5
120
330
1F
100
AcDbEntity
  8
0
 62
     9
100
AcDbBlockReference
  2
_OPEN30
 10
-17.31990950226246
 20
2.419457013574675
 30
0.0
 41
3.000002787824364
 42
2.999989273978464
 50
270.0
  0
LINE
  5
121
330
1F
100
AcDbEntity
  8
0
  6
CONTINUOUS
 62
     9
100
AcDbLine
 10
-17.31990950226246
 20
-4.080542925194987
 30
0.0
 11
-17.31990950226246
 21
0.9194570748050133
 31
0.0
  0
INSERT
  5
122
330
1F
100
AcDbEntity
  8
0
 62
     9
100
AcDbBlockReference
  2
_OPEN30
 10
-17.31990950226246
 20
0.9194570748050133
 30
0.0
 41
3.000002787824364
 42
2.999989273978464
 50
90.0
  0
LINE
  5
123
330
1F
100
AcDbEntity
  8
0
  6
CONTINUOUS
 62
     9
100
AcDbLine
 10
-27.31990950226246
 20
31.67945701357467
 30
0.0
 11
-27.31990950226246
 21
2.919457013574668
 31
0.0
  0
INSERT
  5
124
330
1F
100
AcDbEntity
  8
0
 62
     9
100
AcDbBlockReference
  2
_OPEN30
 10
-27.31990950226246
 20
2.919457013574668
 30
0.0
 41
3.000002787824364
 42
2.999989273978464
 50
270.0
  0
LINE
  5
125
330
1F
100
AcDbEntity
  8
0
  6
CONTINUOUS
 62
     9
100
AcDbLine
 10
-27.31990950226246
 20
-4.080542925194987
 30
0.0
 11
-27.31990950226246
 21
0.9194570748050133
 31
0.0
  0
INSERT
  5
126
330
1F
100
AcDbEntity
  8
0
 62
     9
100
AcDbBlockReference
  2
_OPEN30
 10
-27.31990950226246
 20
0.9194570748050133
 30
0.0
 41
3.000002787824364
 42
2.999989273978464
 50
90.0
  0
LINE
  5
127
330
1F
100
AcDbEntity
  8
0
  6
CONTINUOUS
 62
     9
100
AcDbLine
 10
-37.31990950226245
 20
32.67945701357468
 30
0.0
 11
-37.31990950226245
 21
4.919457013574647
 31
0.0
  0
INSERT
  5
128
330
1F
100
AcDbEntity
  8
0
 62
     9
100
AcDbBlockReference
  2
_OPEN30
 10
-37.31990950226245
 20
4.919457013574647
 30
0.0
 41
3.000002787824364
 42
2.999989273978464
 50
270.0
  0
LINE
  5
129
330
1F
100
AcDbEntity
  8
0
  6
CONTINUOUS
 62
     9
100
AcDbLine
 10
-37.31990950226245
 20
-6.080542986425353
 30
0.0
 11
-37.31990950226245
 21
-1.080542986425353
 31
0.0
  0
INSERT
  5
12A
330
1F
100
AcDbEntity
  8
0
 62
     9
100
AcDbBlockReference
  2
_OPEN30
 10
-37.31990950226245
 20
-1.080542986425353
 30
0.0
 41
3.000002787824364
 42
2.999989273978464
 50
90.0
  0
LINE
  5
12B
330
1F
100
AcDbEntity
  8
0
  6
CONTINUOUS
 62
     9
100
AcDbLine
 10
-47.31990950226245
 20
-4.080542986425332
 30
0.0
 11
-47.31990950226245
 21
7.919457013574668
 31
0.0
  0
INSERT
  5
12C
330
1F
100
AcDbEntity
  8
0
 62
     9
100
AcDbBlockReference
  2
_OPEN30
 10
-47.31990950226245
 20
-4.080542986425332
 30
0.0
 41
3.000002787824364
 42
2.999989273978464
 50
270.0
  0
INSERT
  5
12D
330
1F
100
AcDbEntity
  8
0
 62
     9
100
AcDbBlockReference
  2
_OPEN30
 10
-47.31990950226245
 20
7.919457013574668
 30
0.0
 41
3.000002787824364
 42
2.999989273978464
 50
90.0
  0
LINE
  5
12E
330
1F
100
AcDbEntity
  8
0
  6
CONTINUOUS
 62
     9
100
AcDbLine
 10
0.6333474469659066
 20
-0.8305429864253391
 30
0.0
 11
-2.562227124579227
 21
-14.08054298642533
 31
0.0
  0
INSERT
  5
12F
330
1F
100
AcDbEntity
  8
0
 62
     9
100
AcDbBlockReference
  2
_OPEN30
 10
0.6333474469659066
 20
-0.8305429864253391
 30
0.0
 41
3.000002787824364
 42
2.999989273978464
 50
76.44060396657069
  0
INSERT
  5
130
330
1F
100
AcDbEntity
  8
0
  6
CONTINUOUS
100
AcDbBlockReference
  2
DA_IMAGEDIMGROUP_1
 10
0.0
 20
0.0
 30
0.0
  0
INSERT
  5
131
330
1F
100
AcDbEntity
  8
0
  6
CONTINUOUS
100
AcDbBlockReference
  2
DA_IMAGEDIMGROUP_2
 10
0.0
 20
0.0
 30
0.0
  0
VIEWPORT
  5
48
330
1B
100
AcDbEntity
 67
     1
  8
0
100
AcDbViewport
 10
1.753654848517328
 20
0.6688767704127088
 30
0.0
 40
496.1991711771509
 41
225.5300027039242
 68
     1
 69
     1
1001
ACAD
1000
MVIEW
1002
{
1070
    16
1010
0.0
1020
0.0
1030
0.0
1010
0.0
1020
0.0
1030
1.0
1040
0.0
1040
225.5300027039242
1040
1.753654848517328
1040
0.6688767704127088
1040
50.0
1040
0.0
1040
0.0
1070
     0
1070
   100
1070
     0
1070
     1
1070
     0
1070
     0
1070
     0
1070
     0
1040
0.0
1040
0.0
1040
0.0
1040
0.5
1040
0.5
1040
0.0
1040
0.0
1070
     0
1002
{
1002
}
1002
}
  0
ENDSEC
  0
SECTION
  2
OBJECTS
  0
DICTIONARY
  5
C
330
0
100
AcDbDictionary
  3
ACAD_GROUP
350
D
  3
ACAD_LAYOUT
350
1A
  3
ACAD_MLINESTYLE
350
17
  3
ACAD_PLOTSETTINGS
350
19
  3
ACDBHEADERROUNDTRIPXREC
350
132
  0
DICTIONARY
  5
D
102
{ACAD_REACTORS
330
C
102
}
330
C
100
AcDbDictionary
  0
DICTIONARY
  5
1A
102
{ACAD_REACTORS
330
C
102
}
330
C
100
AcDbDictionary
  0
DICTIONARY
  5
17
102
{ACAD_REACTORS
330
C
102
}
330
C
100
AcDbDictionary
  3
STANDARD
350
18
  0
DICTIONARY
  5
19
102
{ACAD_REACTORS
330
C
102
}
330
C
100
AcDbDictionary
  0
DICTIONARY
  5
132
102
{ACAD_REACTORS
330
C
102
}
330
C
100
AcDbDictionary
  3
CEPSNTYPE
350
13B
  3
DIMSTYLEDATA
350
151
  3
FINGERPRINTGUID
350
13C
  3
HYPERLINKBASE
350
135
  3
INSUNITS
350
13A
  3
LAYOUTDICT
350
137
  3
LWETCUNION
350
139
  3
PLOTSETDICT
350
138
  3
PSVPSCALE
350
13E
  3
PUCSBASE
350
141
  3
PUCSORGBACK
350
147
  3
PUCSORGBOTTOM
350
143
  3
PUCSORGFRONT
350
146
  3
PUCSORGLEFT
350
144
  3
PUCSORGRIGHT
350
145
  3
PUCSORGTOP
350
142
  3
PUCSORTHOREF
350
13F
  3
PUCSORTHOVIEW
350
140
  3
STYLESHEET
350
136
  3
TSTACKALIGN
350
133
  3
TSTACKSIZE
350
134
  3
UCSBASE
350
14A
  3
UCSORGBACK
350
150
  3
UCSORGBOTTOM
350
14C
  3
UCSORGFRONT
350
14F
  3
UCSORGLEFT
350
14D
  3
UCSORGRIGHT
350
14E
  3
UCSORGTOP
350
14B
  3
UCSORTHOREF
350
148
  3
UCSORTHOVIEW
350
149
  3
VERSIONGUID
350
13D
  0
MLINESTYLE
  5
18
102
{ACAD_REACTORS
330
17
102
}
330
17
100
AcDbMlineStyle
  2
Standard
 70
     0
  3

 62
   256
 51
90.0
 52
90.0
 71
     2
 49
0.5
 62
   256
  6
BYLAYER
 49
-0.5
 62
   256
  6
BYLAYER
  0
XRECORD
  5
13B
102
{ACAD_REACTORS
330
132
102
}
330
132
100
AcDbXrecord
 90
        0
  0
XRECORD
  5
151
102
{ACAD_REACTORS
330
132
102
}
330
132
100
AcDbXrecord
1000
DSTYLE
1002
{
1070
   171
 70
     2
1070
   143
 40
25.4
1070
   274
 70
     2
1070
   141
 40
0.09
1070
   271
 70
     4
1070
    43
 40
0.38
1070
    44
 40
0.18
1070
   278
 70
    46
1070
    42
 40
0.0625
1070
   147
 40
0.09
1070
    77
 70
     3
1070
   272
 70
     4
1070
    73
 70
     1
1070
   172
 70
     0
1070
    74
 70
     1
1070
   283
 70
     1
1070
   340
340
11
1070
   140
 40
0.18
1070
   284
 70
     0
1070
    78
 70
     0
1002
}
  0
XRECORD
  5
13C
102
{ACAD_REACTORS
330
132
102
}
330
132
100
AcDbXrecord
  1
{4FE695CA-6FCF-46CB-B0E3-796F351C7808}
  0
XRECORD
  5
135
102
{ACAD_REACTORS
330
132
102
}
330
132
100
AcDbXrecord
  1

  0
XRECORD
  5
13A
102
{ACAD_REACTORS
330
132
102
}
330
132
100
AcDbXrecord
 90
        4
  0
XRECORD
  5
137
102
{ACAD_REACTORS
330
132
102
}
330
132
100
AcDbXrecord
340
1A
  0
XRECORD
  5
139
102
{ACAD_REACTORS
330
132
102
}
330
132
100
AcDbXrecord
 90
    10781
  0
XRECORD
  5
138
102
{ACAD_REACTORS
330
132
102
}
330
132
100
AcDbXrecord
340
19
  0
XRECORD
  5
13E
102
{ACAD_REACTORS
330
132
102
}
330
132
100
AcDbXrecord
 40
0.0
  0
XRECORD
  5
141
102
{ACAD_REACTORS
330
132
102
}
330
132
100
AcDbXrecord
340
0
  0
XRECORD
  5
147
102
{ACAD_REACTORS
330
132
102
}
330
132
100
AcDbXrecord
 10
0.0
 20
0.0
 30
0.0
  0
XRECORD
  5
143
102
{ACAD_REACTORS
330
132
102
}
330
132
100
AcDbXrecord
 10
0.0
 20
0.0
 30
0.0
  0
XRECORD
  5
146
102
{ACAD_REACTORS
330
132
102
}
330
132
100
AcDbXrecord
 10
0.0
 20
0.0
 30
0.0
  0
XRECORD
  5
144
102
{ACAD_REACTORS
330
132
102
}
330
132
100
AcDbXrecord
 10
0.0
 20
0.0
 30
0.0
  0
XRECORD
  5
145
102
{ACAD_REACTORS
330
132
102
}
330
132
100
AcDbXrecord
 10
0.0
 20
0.0
 30
0.0
  0
XRECORD
  5
142
102
{ACAD_REACTORS
330
132
102
}
330
132
100
AcDbXrecord
 10
0.0
 20
0.0
 30
0.0
  0
XRECORD
  5
13F
102
{ACAD_REACTORS
330
132
102
}
330
132
100
AcDbXrecord
340
0
  0
XRECORD
  5
140
102
{ACAD_REACTORS
330
132
102
}
330
132
100
AcDbXrecord
 70
     0
  0
XRECORD
  5
136
102
{ACAD_REACTORS
330
132
102
}
330
132
100
AcDbXrecord
  1

  0
XRECORD
  5
133
102
{ACAD_REACTORS
330
132
102
}
330
132
100
AcDbXrecord
 90
        1
  0
XRECORD
  5
134
102
{ACAD_REACTORS
330
132
102
}
330
132
100
AcDbXrecord
 90
       70
  0
XRECORD
  5
14A
102
{ACAD_REACTORS
330
132
102
}
330
132
100
AcDbXrecord
340
0
  0
XRECORD
  5
150
102
{ACAD_REACTORS
330
132
102
}
330
132
100
AcDbXrecord
 10
0.0
 20
0.0
 30
0.0
  0
XRECORD
  5
14C
102
{ACAD_REACTORS
330
132
102
}
330
132
100
AcDbXrecord
 10
0.0
 20
0.0
 30
0.0
  0
XRECORD
  5
14F
102
{ACAD_REACTORS
330
132
102
}
330
132
100
AcDbXrecord
 10
0.0
 20
0.0
 30
0.0
  0
XRECORD
  5
14D
102
{ACAD_REACTORS
330
132
102
}
330
132
100
AcDbXrecord
 10
0.0
 20
0.0
 30
0.0
  0
XRECORD
  5
14E
102
{ACAD_REACTORS
330
132
102
}
330
132
100
AcDbXrecord
 10
0.0
 20
0.0
 30
0.0
  0
XRECORD
  5
14B
102
{ACAD_REACTORS
330
132
102
}
330
132
100
AcDbXrecord
 10
0.0
 20
0.0
 30
0.0
  0
XRECORD
  5
148
102
{ACAD_REACTORS
330
132
102
}
330
132
100
AcDbXrecord
340
0
  0
XRECORD
  5
149
102
{ACAD_REACTORS
330
132
102
}
330
132
100
AcDbXrecord
 70
     0
  0
XRECORD
  5
13D
102
{ACAD_REACTORS
330
132
102
}
330
132
100
AcDbXrecord
  1
{FAEB1C32-E019-11D5-929B-00C0DF256EC4}
  0
ENDSEC
  0
EOF
