  0
SECTION
  2
HEADER
  9
$ACADVER
  1
AC1014
  9
$ACADMAINTVER
 70
     9
  9
$DWGCODEPAGE
  3
ANSI_932
  9
$INSBASE
 10
0.0
 20
0.0
 30
0.0
  9
$EXTMIN
 10
-1267.061822322283
 20
-877.2017155740944
 30
0.0
  9
$EXTMAX
 10
749.1236446445669
 20
491.4034311481887
 30
0.0
  9
$LIMMIN
 10
-140.0
 20
-99.0
  9
$LIMMAX
 10
140.0
 20
99.0
  9
$ORTHOMODE
 70
     0
  9
$REGENMODE
 70
     1
  9
$FILLMODE
 70
     1
  9
$QTEXTMODE
 70
     0
  9
$MIRRTEXT
 70
     1
  9
$DRAGMODE
 70
     2
  9
$LTSCALE
 40
0.6666666666666666
  9
$OSMODE
 70
    37
  9
$ATTMODE
 70
     1
  9
$TEXTSIZE
 40
0.2
  9
$TRACEWID
 40
0.05
  9
$TEXTSTYLE
  7
STANDARD
  9
$CLAYER
  8
0
  9
$CELTYPE
  6
BYLAYER
  9
$CECOLOR
 62
   256
  9
$CELTSCALE
 40
1.0
  9
$DELOBJ
 70
     1
  9
$DISPSILH
 70
     0
  9
$DIMSCALE
 40
1.0
  9
$DIMASZ
 40
1.666666666666667
  9
$DIMEXO
 40
0.0625
  9
$DIMDLI
 40
0.38
  9
$DIMRND
 40
0.0
  9
$DIMDLE
 40
0.0
  9
$DIMEXE
 40
0.18
  9
$DIMTP
 40
0.0
  9
$DIMTM
 40
0.0
  9
$DIMTXT
 40
0.18
  9
$DIMCEN
 40
0.09
  9
$DIMTSZ
 40
0.0
  9
$DIMTOL
 70
     0
  9
$DIMLIM
 70
     0
  9
$DIMTIH
 70
     1
  9
$DIMTOH
 70
     1
  9
$DIMSE1
 70
     0
  9
$DIMSE2
 70
     0
  9
$DIMTAD
 70
     3
  9
$DIMZIN
 70
     0
  9
$DIMBLK
  1

  9
$DIMASO
 70
     1
  9
$DIMSHO
 70
     1
  9
$DIMPOST
  1

  9
$DIMAPOST
  1

  9
$DIMALT
 70
     0
  9
$DIMALTD
 70
     2
  9
$DIMALTF
 40
25.4
  9
$DIMLFAC
 40
1.0
  9
$DIMTOFL
 70
     0
  9
$DIMTVP
 40
0.0
  9
$DIMTIX
 70
     0
  9
$DIMSOXD
 70
     0
  9
$DIMSAH
 70
     0
  9
$DIMBLK1
  1

  9
$DIMBLK2
  1

  9
$DIMSTYLE
  2
STANDARD
  9
$DIMCLRD
 70
     0
  9
$DIMCLRE
 70
     0
  9
$DIMCLRT
 70
     0
  9
$DIMTFAC
 40
1.0
  9
$DIMGAP
 40
0.09
  9
$DIMJUST
 70
     0
  9
$DIMSD1
 70
     0
  9
$DIMSD2
 70
     0
  9
$DIMTOLJ
 70
     1
  9
$DIMTZIN
 70
     0
  9
$DIMALTZ
 70
     0
  9
$DIMALTTZ
 70
     0
  9
$DIMFIT
 70
     3
  9
$DIMUPT
 70
     0
  9
$DIMUNIT
 70
     2
  9
$DIMDEC
 70
     4
  9
$DIMTDEC
 70
     4
  9
$DIMALTU
 70
     2
  9
$DIMALTTD
 70
     2
  9
$DIMTXSTY
  7
STANDARD
  9
$DIMAUNIT
 70
     0
  9
$LUNITS
 70
     2
  9
$LUPREC
 70
     4
  9
$SKETCHINC
 40
0.1
  9
$FILLETRAD
 40
0.5
  9
$AUNITS
 70
     0
  9
$AUPREC
 70
     0
  9
$MENU
  1
.
  9
$ELEVATION
 40
0.0
  9
$PELEVATION
 40
0.0
  9
$THICKNESS
 40
0.0
  9
$LIMCHECK
 70
     0
  9
$CHAMFERA
 40
0.5
  9
$CHAMFERB
 40
0.5
  9
$CHAMFERC
 40
1.0
  9
$CHAMFERD
 40
0.0
  9
$SKPOLY
 70
     0
  9
$TDCREATE
 40
2456337.41178794
  9
$TDUPDATE
 40
2456337.411787951
  9
$TDINDWG
 40
0.0000000116
  9
$TDUSRTIMER
 40
0.0000000116
  9
$USRTIMER
 70
     1
  9
$ANGBASE
 50
0.0
  9
$ANGDIR
 70
     0
  9
$PDMODE
 70
     0
  9
$PDSIZE
 40
1.0
  9
$PLINEWID
 40
0.0
  9
$COORDS
 70
     1
  9
$SPLFRAME
 70
     0
  9
$SPLINETYPE
 70
     6
  9
$SPLINESEGS
 70
     8
  9
$ATTDIA
 70
     0
  9
$ATTREQ
 70
     1
  9
$HANDLING
 70
     1
  9
$HANDSEED
  5
1A5
  9
$SURFTAB1
 70
     6
  9
$SURFTAB2
 70
     6
  9
$SURFTYPE
 70
     6
  9
$SURFU
 70
     6
  9
$SURFV
 70
     6
  9
$UCSNAME
  2

  9
$UCSORG
 10
0.0
 20
0.0
 30
0.0
  9
$UCSXDIR
 10
1.0
 20
0.0
 30
0.0
  9
$UCSYDIR
 10
0.0
 20
1.0
 30
0.0
  9
$PUCSNAME
  2

  9
$PUCSORG
 10
0.0
 20
0.0
 30
0.0
  9
$PUCSXDIR
 10
1.0
 20
0.0
 30
0.0
  9
$PUCSYDIR
 10
0.0
 20
1.0
 30
0.0
  9
$USERI1
 70
     0
  9
$USERI2
 70
     0
  9
$USERI3
 70
     0
  9
$USERI4
 70
     0
  9
$USERI5
 70
     0
  9
$USERR1
 40
0.0
  9
$USERR2
 40
0.0
  9
$USERR3
 40
0.0
  9
$USERR4
 40
0.0
  9
$USERR5
 40
0.0
  9
$WORLDVIEW
 70
     1
  9
$SHADEDGE
 70
     3
  9
$SHADEDIF
 70
    70
  9
$TILEMODE
 70
     1
  9
$MAXACTVP
 70
    64
  9
$PINSBASE
 10
0.0
 20
0.0
 30
0.0
  9
$PLIMCHECK
 70
     0
  9
$PEXTMIN
 10
1.000000000000000E+20
 20
1.000000000000000E+20
 30
1.000000000000000E+20
  9
$PEXTMAX
 10
-1.000000000000000E+20
 20
-1.000000000000000E+20
 30
-1.000000000000000E+20
  9
$PLIMMIN
 10
0.0
 20
0.0
  9
$PLIMMAX
 10
12.0
 20
9.0
  9
$UNITMODE
 70
     0
  9
$VISRETAIN
 70
     0
  9
$PLINEGEN
 70
     1
  9
$PSLTSCALE
 70
     0
  9
$TREEDEPTH
 70
  3020
  9
$PICKSTYLE
 70
     1
  9
$CMLSTYLE
  2
STANDARD
  9
$CMLJUST
 70
     0
  9
$CMLSCALE
 40
1.0
  9
$PROXYGRAPHICS
 70
     0
  9
$MEASUREMENT
 70
     1
  0
ENDSEC
  0
SECTION
  2
CLASSES
  0
CLASS
  1
ACDBDICTIONARYWDFLT
  2
AcDbDictionaryWithDefault
  3
ObjectDBX Classes
 90
        0
280
     0
281
     0
  0
CLASS
  1
XRECORD
  2
AcDbXrecord
  3
AutoCAD 2000
 90
        0
280
     0
281
     0
  0
CLASS
  1
LWPOLYLINE
  2
AcDbPolyline
  3
AutoCAD 2000
 90
        0
280
     0
281
     1
  0
CLASS
  1
HATCH
  2
AcDbHatch
  3
AutoCAD 2000
 90
        0
280
     0
281
     1
  0
CLASS
  1
ACDBPLACEHOLDER
  2
AcDbPlaceHolder
  3
ObjectDBX Classes
 90
        0
280
     0
281
     0
  0
CLASS
  1
LAYOUT
  2
AcDbLayout
  3
ObjectDBX Classes
 90
        0
280
     0
281
     0
  0
ENDSEC
  0
SECTION
  2
TABLES
  0
TABLE
  2
VPORT
  5
8
330
0
100
AcDbSymbolTable
 70
     1
  0
VPORT
  5
29
330
8
100
AcDbSymbolTableRecord
100
AcDbViewportTableRecord
  2
*ACTIVE
 70
     0
 10
0.0
 20
0.0
 11
1.0
 21
1.0
 12
0.0
 22
0.0
 13
0.0
 23
0.0
 14
0.5
 24
0.5
 15
0.5
 25
0.5
 16
0.0
 26
0.0
 36
1.0
 17
-258.7190888388583
 27
-192.6491422129528
 37
0.0
 40
464.8157498855762
 41
1.473687281331052
 42
50.0
 43
0.0
 44
0.0
 50
0.0
 51
0.0
 71
     0
 72
  1000
 73
     1
 74
     1
 75
     0
 76
     0
 77
     0
 78
     0
  0
ENDTAB
  0
TABLE
  2
LTYPE
  5
5
330
0
100
AcDbSymbolTable
 70
    28
  0
LTYPE
  5
14
330
5
100
AcDbSymbolTableRecord
100
AcDbLinetypeTableRecord
  2
BYBLOCK
 70
     0
  3

 72
    65
 73
     0
 40
0.0
  0
LTYPE
  5
15
330
5
100
AcDbSymbolTableRecord
100
AcDbLinetypeTableRecord
  2
BYLAYER
 70
     0
  3

 72
    65
 73
     0
 40
0.0
  0
LTYPE
  5
16
330
5
100
AcDbSymbolTableRecord
100
AcDbLinetypeTableRecord
  2
CONTINUOUS
 70
     0
  3
Solid line
 72
    65
 73
     0
 40
0.0
  0
LTYPE
  5
2B
330
5
100
AcDbSymbolTableRecord
100
AcDbLinetypeTableRecord
  2
HIDDENX2
 70
     0
  3
CADPAC LINETYPE
 72
    65
 73
     2
 40
6.111111111111114
 49
4.583333333333336
 74
     0
 49
-1.527777777777779
 74
     0
  0
LTYPE
  5
2C
330
5
100
AcDbSymbolTableRecord
100
AcDbLinetypeTableRecord
  2
HIDDEN
 70
     0
  3
CADPAC LINETYPE
 72
    65
 73
     2
 40
4.583333333333336
 49
3.055555555555557
 74
     0
 49
-1.527777777777779
 74
     0
  0
LTYPE
  5
2D
330
5
100
AcDbSymbolTableRecord
100
AcDbLinetypeTableRecord
  2
HIDDEN2
 70
     0
  3
CADPAC LINETYPE
 72
    65
 73
     2
 40
3.819444444444446
 49
2.291666666666668
 74
     0
 49
-1.527777777777779
 74
     0
  0
LTYPE
  5
2E
330
5
100
AcDbSymbolTableRecord
100
AcDbLinetypeTableRecord
  2
DASHED
 70
     0
  3
CADPAC LINETYPE
 72
    65
 73
     2
 40
4.277777777777772
 49
3.055555555555557
 74
     0
 49
-1.222222222222214
 74
     0
  0
LTYPE
  5
2F
330
5
100
AcDbSymbolTableRecord
100
AcDbLinetypeTableRecord
  2
DASHED2
 70
     0
  3
CADPAC LINETYPE
 72
    65
 73
     2
 40
2.750000000000014
 49
1.833333333333343
 74
     0
 49
-0.9166666666666714
 74
     0
  0
LTYPE
  5
30
330
5
100
AcDbSymbolTableRecord
100
AcDbLinetypeTableRecord
  2
DASHEDX2
 70
     0
  3
CADPAC LINETYPE
 72
    65
 73
     2
 40
7.333333333333329
 49
6.111111111111114
 74
     0
 49
-1.222222222222214
 74
     0
  0
LTYPE
  5
31
330
5
100
AcDbSymbolTableRecord
100
AcDbLinetypeTableRecord
  2
DOTX2
 70
     0
  3
CADPAC LINETYPE
 72
    65
 73
     2
 40
2.673611111111107
 49
0.0
 74
     0
 49
-2.673611111111107
 74
     0
  0
LTYPE
  5
32
330
5
100
AcDbSymbolTableRecord
100
AcDbLinetypeTableRecord
  2
DOT
 70
     0
  3
CADPAC LINETYPE
 72
    65
 73
     2
 40
2.138888888888886
 49
0.0
 74
     0
 49
-2.138888888888886
 74
     0
  0
LTYPE
  5
33
330
5
100
AcDbSymbolTableRecord
100
AcDbLinetypeTableRecord
  2
DOT2
 70
     0
  3
CADPAC LINETYPE
 72
    65
 73
     2
 40
1.604166666666664
 49
0.0
 74
     0
 49
-1.604166666666664
 74
     0
  0
LTYPE
  5
34
330
5
100
AcDbSymbolTableRecord
100
AcDbLinetypeTableRecord
  2
CENTERX2
 70
     0
  3
CADPAC LINETYPE
 72
    65
 73
     4
 40
9.166666666666671
 49
3.819444444444446
 74
     0
 49
-1.909722222222223
 74
     0
 49
1.527777777777779
 74
     0
 49
-1.909722222222223
 74
     0
  0
LTYPE
  5
35
330
5
100
AcDbSymbolTableRecord
100
AcDbLinetypeTableRecord
  2
CENTER
 70
     0
  3
CADPAC LINETYPE
 72
    65
 73
     4
 40
7.027777777777781
 49
3.055555555555557
 74
     0
 49
-1.527777777777779
 74
     0
 49
0.9166666666666671
 74
     0
 49
-1.527777777777779
 74
     0
  0
LTYPE
  5
36
330
5
100
AcDbSymbolTableRecord
100
AcDbLinetypeTableRecord
  2
CENTER2
 70
     0
  3
CADPAC LINETYPE
 72
    65
 73
     4
 40
4.888888888888891
 49
2.291666666666668
 74
     0
 49
-1.145833333333334
 74
     0
 49
0.3055555555555558
 74
     0
 49
-1.145833333333334
 74
     0
  0
LTYPE
  5
37
330
5
100
AcDbSymbolTableRecord
100
AcDbLinetypeTableRecord
  2
DASHDOTX2
 70
     0
  3
CADPAC LINETYPE
 72
    65
 73
     4
 40
14.66666666666674
 49
7.333333333333329
 74
     0
 49
-2.444444444444471
 74
     0
 49
2.444444444444471
 74
     0
 49
-2.444444444444471
 74
     0
  0
LTYPE
  5
38
330
5
100
AcDbSymbolTableRecord
100
AcDbLinetypeTableRecord
  2
DASHDOT
 70
     0
  3
CADPAC LINETYPE
 72
    65
 73
     4
 40
7.333333333333286
 49
3.666666666666643
 74
     0
 49
-1.222222222222214
 74
     0
 49
1.222222222222214
 74
     0
 49
-1.222222222222214
 74
     0
  0
LTYPE
  5
39
330
5
100
AcDbSymbolTableRecord
100
AcDbLinetypeTableRecord
  2
DASHDOT2
 70
     0
  3
CADPAC LINETYPE
 72
    65
 73
     4
 40
4.705555555555526
 49
2.749999999999982
 74
     0
 49
-0.9166666666666608
 74
     0
 49
0.1222222222222214
 74
     0
 49
-0.9166666666666608
 74
     0
  0
LTYPE
  5
3A
330
5
100
AcDbSymbolTableRecord
100
AcDbLinetypeTableRecord
  2
DIVIDEX2
 70
     0
  3
CADPAC LINETYPE
 72
    65
 73
     6
 40
19.55555555555569
 49
7.333333333333329
 74
     0
 49
-2.444444444444471
 74
     0
 49
2.444444444444471
 74
     0
 49
-2.444444444444471
 74
     0
 49
2.444444444444471
 74
     0
 49
-2.444444444444471
 74
     0
  0
LTYPE
  5
3B
330
5
100
AcDbSymbolTableRecord
100
AcDbLinetypeTableRecord
  2
DIVIDE
 70
     0
  3
CADPAC LINETYPE
 72
    65
 73
     6
 40
9.777777777777715
 49
3.666666666666643
 74
     0
 49
-1.222222222222214
 74
     0
 49
1.222222222222214
 74
     0
 49
-1.222222222222214
 74
     0
 49
1.222222222222214
 74
     0
 49
-1.222222222222214
 74
     0
  0
LTYPE
  5
3C
330
5
100
AcDbSymbolTableRecord
100
AcDbLinetypeTableRecord
  2
DIVIDE2
 70
     0
  3
CADPAC LINETYPE
 72
    65
 73
     6
 40
7.333333333333286
 49
2.749999999999982
 74
     0
 49
-0.9166666666666608
 74
     0
 49
0.9166666666666608
 74
     0
 49
-0.9166666666666608
 74
     0
 49
0.9166666666666608
 74
     0
 49
-0.9166666666666608
 74
     0
  0
LTYPE
  5
3D
330
5
100
AcDbSymbolTableRecord
100
AcDbLinetypeTableRecord
  2
BORDERX2
 70
     0
  3
CADPAC LINETYPE
 72
    65
 73
     6
 40
13.36805555555556
 49
3.819444444444446
 74
     0
 49
-1.909722222222223
 74
     0
 49
3.819444444444446
 74
     0
 49
-1.909722222222223
 74
     0
 49
0.0
 74
     0
 49
-1.909722222222223
 74
     0
  0
LTYPE
  5
3E
330
5
100
AcDbSymbolTableRecord
100
AcDbLinetypeTableRecord
  2
BORDER
 70
     0
  3
CADPAC LINETYPE
 72
    65
 73
     6
 40
10.69444444444445
 49
3.055555555555557
 74
     0
 49
-1.527777777777779
 74
     0
 49
3.055555555555557
 74
     0
 49
-1.527777777777779
 74
     0
 49
0.0
 74
     0
 49
-1.527777777777779
 74
     0
  0
LTYPE
  5
3F
330
5
100
AcDbSymbolTableRecord
100
AcDbLinetypeTableRecord
  2
BORDER2
 70
     0
  3
CADPAC LINETYPE
 72
    65
 73
     6
 40
7.944444444444436
 49
2.444444444444471
 74
     0
 49
-1.527777777777757
 74
     0
 49
0.9166666666666714
 74
     0
 49
-1.527777777777757
 74
     0
 49
0.0
 74
     0
 49
-1.527777777777779
 74
     0
  0
LTYPE
  5
40
330
5
100
AcDbSymbolTableRecord
100
AcDbLinetypeTableRecord
  2
PHANTOMX2
 70
     0
  3
CADPAC LINETYPE
 72
    65
 73
     6
 40
11.45833333333334
 49
3.819444444444446
 74
     0
 49
-1.527777777777779
 74
     0
 49
1.527777777777779
 74
     0
 49
-1.527777777777779
 74
     0
 49
1.527777777777779
 74
     0
 49
-1.527777777777779
 74
     0
  0
LTYPE
  5
41
330
5
100
AcDbSymbolTableRecord
100
AcDbLinetypeTableRecord
  2
PHANTOM
 70
     0
  3
CADPAC LINETYPE
 72
    65
 73
     6
 40
9.472222222222227
 49
3.055555555555557
 74
     0
 49
-1.527777777777779
 74
     0
 49
0.9166666666666671
 74
     0
 49
-1.527777777777779
 74
     0
 49
0.9166666666666671
 74
     0
 49
-1.527777777777779
 74
     0
  0
LTYPE
  5
42
330
5
100
AcDbSymbolTableRecord
100
AcDbLinetypeTableRecord
  2
PHANTOM2
 70
     0
  3
CADPAC LINETYPE
 72
    65
 73
     6
 40
8.097222222222227
 49
2.291666666666668
 74
     0
 49
-1.527777777777779
 74
     0
 49
0.6111111111111115
 74
     0
 49
-1.527777777777779
 74
     0
 49
0.6111111111111115
 74
     0
 49
-1.527777777777779
 74
     0
  0
LTYPE
  5
43
330
5
100
AcDbSymbolTableRecord
100
AcDbLinetypeTableRecord
  2
ACAD_ISO06W100
 70
     0
  3
CADPAC LINETYPE
 72
    65
 73
     8
 40
16.19444444444437
 49
7.333333333333329
 74
     0
 49
-1.527777777777757
 74
     0
 49
0.9166666666666714
 74
     0
 49
-1.527777777777757
 74
     0
 49
0.9166666666666714
 74
     0
 49
-1.527777777777757
 74
     0
 49
0.9166666666666714
 74
     0
 49
-1.527777777777757
 74
     0
  0
LTYPE
  5
44
330
5
100
AcDbSymbolTableRecord
100
AcDbLinetypeTableRecord
  2
ACAD_ISO13W100
 70
     0
  3
CADPAC LINETYPE
 72
    65
 73
     8
 40
12.22222222222223
 49
3.055555555555557
 74
     0
 49
-1.527777777777779
 74
     0
 49
3.055555555555557
 74
     0
 49
-1.527777777777779
 74
     0
 49
0.0
 74
     0
 49
-1.527777777777779
 74
     0
 49
0.0
 74
     0
 49
-1.527777777777779
 74
     0
  0
LTYPE
  5
45
330
5
100
AcDbSymbolTableRecord
100
AcDbLinetypeTableRecord
  2
ACAD_ISO14W100
 70
     0
  3
CADPAC LINETYPE
 72
    65
 73
     8
 40
9.166666666666671
 49
3.055555555555557
 74
     0
 49
-1.527777777777779
 74
     0
 49
0.0
 74
     0
 49
-1.527777777777779
 74
     0
 49
0.0
 74
     0
 49
-1.527777777777779
 74
     0
 49
0.0
 74
     0
 49
-1.527777777777779
 74
     0
  0
ENDTAB
  0
TABLE
  2
LAYER
  5
2
330
0
100
AcDbSymbolTable
 70
     3
  0
LAYER
  5
10
330
2
100
AcDbSymbolTableRecord
100
AcDbLayerTableRecord
  2
0
 70
     0
 62
     7
  6
CONTINUOUS
  0
LAYER
  5
46
330
2
100
AcDbSymbolTableRecord
100
AcDbLayerTableRecord
  2
LAYER0001
 70
     0
 62
     7
  6
CONTINUOUS
  0
LAYER
  5
47
330
2
100
AcDbSymbolTableRecord
100
AcDbLayerTableRecord
  2
LAYER0016
 70
     0
 62
     7
  6
CONTINUOUS
  0
ENDTAB
  0
TABLE
  2
STYLE
  5
3
330
0
100
AcDbSymbolTable
 70
     2
  0
STYLE
  5
11
330
3
100
AcDbSymbolTableRecord
100
AcDbTextStyleTableRecord
  2
STANDARD
 70
     0
 40
0.0
 41
1.0
 50
0.0
 71
     0
 42
0.2
  3
txt
  4

  0
STYLE
  5
5D
330
3
100
AcDbSymbolTableRecord
100
AcDbTextStyleTableRecord
  2
FDASTYLE0
 70
     0
 40
2.666666666666667
 41
0.7692307692307691
 50
0.0
 71
     0
 42
0.2
  3
txt.shx
  4
bigfont
  0
ENDTAB
  0
TABLE
  2
VIEW
  5
6
330
0
100
AcDbSymbolTable
 70
     0
  0
ENDTAB
  0
TABLE
  2
UCS
  5
7
330
0
100
AcDbSymbolTable
 70
     0
  0
ENDTAB
  0
TABLE
  2
APPID
  5
9
330
0
100
AcDbSymbolTable
 70
     2
  0
APPID
  5
12
330
9
100
AcDbSymbolTableRecord
100
AcDbRegAppTableRecord
  2
ACAD
 70
     0
  0
APPID
  5
2A
330
9
100
AcDbSymbolTableRecord
100
AcDbRegAppTableRecord
  2
DAFUSIONOUT
 70
     0
  0
ENDTAB
  0
TABLE
  2
DIMSTYLE
  5
A
330
0
100
AcDbSymbolTable
 70
     1
  0
DIMSTYLE
105
27
330
A
100
AcDbSymbolTableRecord
100
AcDbDimStyleTableRecord
  2
STANDARD
 70
     0
  3

  4

  5

  6

  7

 40
1.0
 41
0.18
 42
0.0625
 43
0.38
 44
0.18
 45
0.0
 46
0.0
 47
0.0
 48
0.0
140
0.18
141
0.09
142
0.0
143
25.4
144
1.0
145
0.0
146
1.0
147
0.09
 71
     0
 72
     0
 73
     1
 74
     1
 75
     0
 76
     0
 77
     0
 78
     0
170
     0
171
     2
172
     0
173
     0
174
     0
175
     0
176
     0
177
     0
178
     0
270
     2
271
     4
272
     4
273
     2
274
     2
340
11
275
     0
280
     0
281
     0
282
     0
283
     1
284
     0
285
     0
286
     0
287
     3
288
     0
  0
ENDTAB
  0
TABLE
  2
BLOCK_RECORD
  5
1
330
0
100
AcDbSymbolTable
 70
     5
  0
BLOCK_RECORD
  5
1F
330
1
100
AcDbSymbolTableRecord
100
AcDbBlockTableRecord
  2
*MODEL_SPACE
  0
BLOCK_RECORD
  5
1B
330
1
100
AcDbSymbolTableRecord
100
AcDbBlockTableRecord
  2
*PAPER_SPACE
  0
BLOCK_RECORD
  5
49
330
1
100
AcDbSymbolTableRecord
100
AcDbBlockTableRecord
  2
DA_IMAGEDIMGROUP_1
  0
BLOCK_RECORD
  5
4C
330
1
100
AcDbSymbolTableRecord
100
AcDbBlockTableRecord
  2
DA_IMAGEDIMGROUP_2
  0
BLOCK_RECORD
  5
4F
330
1
100
AcDbSymbolTableRecord
100
AcDbBlockTableRecord
  2
DA_IMAGEDIMGROUP_3
  0
BLOCK_RECORD
  5
55
330
1
100
AcDbSymbolTableRecord
100
AcDbBlockTableRecord
  2
_OPEN30
  0
ENDTAB
  0
ENDSEC
  0
SECTION
  2
BLOCKS
  0
BLOCK
  5
20
330
1F
100
AcDbEntity
  8
0
100
AcDbBlockBegin
  2
*MODEL_SPACE
 70
     0
 71
     0
 10
0.0
 20
0.0
 30
0.0
  3
*MODEL_SPACE
  1

  0
ENDBLK
  5
21
330
1F
100
AcDbEntity
  8
0
100
AcDbBlockEnd
  0
BLOCK
  5
1C
330
1B
100
AcDbEntity
 67
     1
  8
0
100
AcDbBlockBegin
  2
*PAPER_SPACE
 70
     0
 71
     0
 10
0.0
 20
0.0
 30
0.0
  3
*PAPER_SPACE
  1

  0
ENDBLK
  5
1D
330
1B
100
AcDbEntity
 67
     1
  8
0
100
AcDbBlockEnd
  0
BLOCK
  5
4A
330
49
100
AcDbEntity
  8
0
100
AcDbBlockBegin
  2
DA_IMAGEDIMGROUP_1
 70
     0
 71
     0
 10
0.0
 20
0.0
 30
0.0
  3
DA_IMAGEDIMGROUP_1
  1

  0
LINE
  5
52
330
49
100
AcDbEntity
  8
0
  6
CONTINUOUS
 62
     9
100
AcDbLine
 10
-50.09583207702482
 20
24.13191378624396
 30
0.0
 11
-50.09583207702482
 21
20.59829103279721
 31
0.0
  0
LINE
  5
53
330
49
100
AcDbEntity
  8
0
  6
CONTINUOUS
 62
     9
100
AcDbLine
 10
-77.29612149713823
 20
-3.068375633869453
 30
0.0
 11
-73.76249874369147
 21
-3.068375633869456
 31
0.0
  0
ARC
  5
54
330
49
100
AcDbEntity
  8
0
  6
CONTINUOUS
 62
     9
100
AcDbCircle
 10
-50.09583207702482
 20
-3.068375633869456
 30
0.0
 40
26.53362275344675
100
AcDbArc
 50
90.0
 51
180.0
  0
INSERT
  5
5B
330
49
100
AcDbEntity
  8
0
 62
     9
100
AcDbBlockReference
  2
_OPEN30
 10
-50.09583207702482
 20
23.46524711957729
 30
0.0
 41
2.000001858549576
 42
1.999992849318975
 50
2.748282881537385
  0
INSERT
  5
5C
330
49
100
AcDbEntity
  8
0
 62
     9
100
AcDbBlockReference
  2
_OPEN30
 10
-76.62945483047156
 20
-3.068375633869453
 30
0.0
 41
2.000001858549576
 42
1.999992849318975
 50
267.2517171184628
  0
TEXT
  5
5E
330
49
100
AcDbEntity
  8
0
 62
     7
100
AcDbText
 10
-73.10057734255196
 20
12.3938972990012
 30
0.0
 40
2.666666666666667
  1
4-90°
 50
45.0
 41
0.7692307692307691
  7
FDASTYLE0
 72
     5
 11
-65.55810500989546
 21
19.9363696316577
 31
0.0
100
AcDbText
  0
ENDBLK
  5
4B
330
49
100
AcDbEntity
  8
0
100
AcDbBlockEnd
  0
BLOCK
  5
4D
330
4C
100
AcDbEntity
  8
0
100
AcDbBlockBegin
  2
DA_IMAGEDIMGROUP_2
 70
     0
 71
     0
 10
0.0
 20
0.0
 30
0.0
  3
DA_IMAGEDIMGROUP_2
  1

  0
LINE
  5
5F
330
4C
100
AcDbEntity
  8
0
  6
CONTINUOUS
 62
     9
100
AcDbLine
 10
-55.21849251153971
 20
-20.32405151378374
 30
0.0
 11
-44.97317164250992
 21
14.18730024604483
 31
0.0
  0
LINE
  5
60
330
4C
100
AcDbEntity
  8
0
  6
CONTINUOUS
 62
     9
100
AcDbLine
 10
-39.82449861041872
 20
31.53059953147456
 30
0.0
 11
-44.97317164250992
 21
14.18730024604483
 31
0.0
  0
INSERT
  5
61
330
4C
100
AcDbEntity
  8
0
 62
     9
100
AcDbBlockReference
  2
_OPEN30
 10
-44.97317164250992
 20
14.18730024604483
 30
0.0
 41
2.000001858549576
 42
1.999992849318975
 50
253.4655232604724
  0
LINE
  5
62
330
4C
100
AcDbEntity
  8
0
  6
CONTINUOUS
 62
     9
100
AcDbLine
 10
-56.16713333274618
 20
-23.5195470471012
 30
0.0
 11
-55.21849251153971
 21
-20.32405151378374
 31
0.0
  0
INSERT
  5
63
330
4C
100
AcDbEntity
  8
0
 62
     9
100
AcDbBlockReference
  2
_OPEN30
 10
-55.21849251153971
 20
-20.32405151378374
 30
0.0
 41
2.000001858549576
 42
1.999992849318975
 50
73.46552326047228
  0
TEXT
  5
64
330
4C
100
AcDbEntity
  8
0
 62
     7
100
AcDbText
 10
-43.96673854163343
 20
19.92000179028113
 30
0.0
 40
2.666666666666667
  1
φ36
 50
73.4655232604724
 41
0.7500000000000001
  7
FDASTYLE0
 72
     5
 11
-42.14534816491702
 21
26.05535321425066
 31
0.0
100
AcDbText
  0
TEXT
  5
65
330
4C
100
AcDbEntity
  8
0
 62
     7
100
AcDbText
 10
-43.6172776780008
 20
27.18774554794151
 30
0.0
 40
1.733333333333333
  1
±0.2
 50
73.4655232604724
 41
0.7619047619047618
  7
FDASTYLE0
 72
     5
 11
-42.03873935151325
 21
32.50505011538176
 31
0.0
100
AcDbText
  0
ENDBLK
  5
4E
330
4C
100
AcDbEntity
  8
0
100
AcDbBlockEnd
  0
BLOCK
  5
50
330
4F
100
AcDbEntity
  8
0
100
AcDbBlockBegin
  2
DA_IMAGEDIMGROUP_3
 70
     0
 71
     0
 10
0.0
 20
0.0
 30
0.0
  3
DA_IMAGEDIMGROUP_3
  1

  0
LINE
  5
66
330
4F
100
AcDbEntity
  8
0
  6
CONTINUOUS
 62
     9
100
AcDbLine
 10
-1.095832077024717
 20
8.09829103279721
 30
0.0
 11
-1.095832077024717
 21
22.72600849319539
 31
0.0
  0
LINE
  5
67
330
4F
100
AcDbEntity
  8
0
  6
CONTINUOUS
 62
     9
100
AcDbLine
 10
10.90416792297528
 20
8.59829103279721
 30
0.0
 11
10.90416792297528
 21
22.72600849319539
 31
0.0
  0
LINE
  5
68
330
4F
100
AcDbEntity
  8
0
  6
CONTINUOUS
 62
     9
100
AcDbLine
 10
-1.095832077024717
 20
22.05934182652872
 30
0.0
 11
10.90416792297528
 21
22.05934182652872
 31
0.0
  0
INSERT
  5
69
330
4F
100
AcDbEntity
  8
0
 62
     9
100
AcDbBlockReference
  2
_OPEN30
 10
-1.095832077024717
 20
22.05934182652872
 30
0.0
 41
2.000001858549576
 42
1.999992849318975
 50
180.0
  0
INSERT
  5
6A
330
4F
100
AcDbEntity
  8
0
 62
     9
100
AcDbBlockReference
  2
_OPEN30
 10
10.90416792297528
 20
22.05934182652872
 30
0.0
 41
2.000001858549576
 42
1.999992849318975
 50
360.0
  0
TEXT
  5
6B
330
4F
100
AcDbEntity
  8
0
 62
     7
100
AcDbText
 10
2.77083458964195
 20
22.72600849319539
 30
0.0
 40
2.666666666666667
  1
12
 41
0.7999999999999998
  7
FDASTYLE0
 72
     5
 11
7.037501256308616
 21
22.72600849319539
 31
0.0
100
AcDbText
  0
ENDBLK
  5
51
330
4F
100
AcDbEntity
  8
0
100
AcDbBlockEnd
  0
BLOCK
  5
56
330
55
100
AcDbEntity
  8
0
100
AcDbBlockBegin
  2
_OPEN30
 70
     0
 71
     0
 10
0.0
 20
0.0
 30
0.0
  3
_OPEN30
  1

  0
LINE
  5
58
330
55
100
AcDbEntity
  8
0
  6
BYBLOCK
 62
     0
100
AcDbLine
 10
-1.0
 20
0.267949
 30
0.0
 11
0.0
 21
0.0
 31
0.0
  0
LINE
  5
59
330
55
100
AcDbEntity
  8
0
  6
BYBLOCK
 62
     0
100
AcDbLine
 10
0.0
 20
0.0
 30
0.0
 11
-1.0
 21
-0.267949
 31
0.0
  0
LINE
  5
5A
330
55
100
AcDbEntity
  8
0
  6
BYBLOCK
 62
     0
100
AcDbLine
 10
0.0
 20
0.0
 30
0.0
 11
-1.0
 21
0.0
 31
0.0
  0
ENDBLK
  5
57
330
55
100
AcDbEntity
  8
0
100
AcDbBlockEnd
  0
ENDSEC
  0
SECTION
  2
ENTITIES
  0
POINT
  5
6C
330
1F
100
AcDbEntity
  8
0
  6
CONTINUOUS
 62
     5
100
AcDbPoint
 10
-594.5
 20
-420.5
 30
0.0
  0
LINE
  5
6D
330
1F
100
AcDbEntity
  8
LAYER0001
  6
CENTER
 62
     9
100
AcDbLine
 10
-50.09583207702482
 20
19.93162436613054
 30
0.0
 11
-50.09583207702482
 21
-26.06837563386946
 31
0.0
  0
LINE
  5
6E
330
1F
100
AcDbEntity
  8
LAYER0001
  6
CENTER
 62
     9
100
AcDbLine
 10
-73.0958320770248
 20
-3.068375633869456
 30
0.0
 11
-27.20587091099762
 21
-3.068375633869456
 31
0.0
  0
LINE
  5
6F
330
1F
100
AcDbEntity
  8
LAYER0001
  6
CENTER
 62
     9
100
AcDbLine
 10
-43.09583207702482
 20
4.931624366130544
 30
0.0
 11
-57.09583207702482
 21
4.931624366130544
 31
0.0
  0
LINE
  5
70
330
1F
100
AcDbEntity
  8
LAYER0001
  6
CENTER
 62
     9
100
AcDbLine
 10
-3.095832077024717
 20
4.931624366130544
 30
0.0
 11
27.85416792297523
 21
4.931624366130544
 31
0.0
  0
LINE
  5
71
330
1F
100
AcDbEntity
  8
LAYER0001
  6
CENTER
 62
     9
100
AcDbLine
 10
16.90416792297518
 20
-3.068375633869456
 30
0.0
 11
51.39411496961102
 21
-3.068375633869456
 31
0.0
  0
LINE
  5
72
330
1F
100
AcDbEntity
  8
LAYER0001
  6
CENTER
 62
     9
100
AcDbLine
 10
-37.0730765440022
 20
11.91916680086225
 30
0.0
 11
-37.0730765440022
 21
3.738133523184763
 31
0.0
  0
LINE
  5
73
330
1F
100
AcDbEntity
  8
LAYER0001
  6
CENTER
 62
     9
100
AcDbLine
 10
-32.96648918948696
 20
7.859013730801715
 30
0.0
 11
-41.47375999050741
 21
7.859013730801715
 31
0.0
  0
LINE
  5
74
330
1F
100
AcDbEntity
  8
LAYER0001
  6
CENTER
 62
     9
100
AcDbLine
 10
-36.23844530454179
 20
-16.99396038678233
 30
0.0
 11
-44.74571610556225
 21
-16.99396038678233
 31
0.0
  0
LINE
  5
75
330
1F
100
AcDbEntity
  8
LAYER0001
  6
CENTER
 62
     9
100
AcDbLine
 10
-40.34503265905703
 20
-12.9338073167218
 30
0.0
 11
-40.34503265905703
 21
-21.11484059439928
 31
0.0
  0
LINE
  5
76
330
1F
100
AcDbEntity
  8
LAYER0001
  6
CENTER
 62
     9
100
AcDbLine
 10
-55.74004414047739
 20
-16.99396038678233
 30
0.0
 11
-64.24731494149785
 21
-16.99396038678233
 31
0.0
  0
LINE
  5
77
330
1F
100
AcDbEntity
  8
LAYER0001
  6
CENTER
 62
     9
100
AcDbLine
 10
-59.84663149499263
 20
-12.9338073167218
 30
0.0
 11
-59.84663149499263
 21
-21.11484059439928
 31
0.0
  0
LINE
  5
78
330
1F
100
AcDbEntity
  8
LAYER0001
  6
CENTER
 62
     9
100
AcDbLine
 10
-59.01200025553219
 20
7.85901373080171
 30
0.0
 11
-67.51927105655264
 21
7.85901373080171
 31
0.0
  0
LINE
  5
79
330
1F
100
AcDbEntity
  8
LAYER0001
  6
CENTER
 62
     9
100
AcDbLine
 10
-63.11858761004744
 20
11.91916680086224
 30
0.0
 11
-63.11858761004744
 21
3.738133523184757
 31
0.0
  0
LINE
  5
7A
330
1F
100
AcDbEntity
  8
LAYER0001
  6
DASHED2
 62
     9
100
AcDbLine
 10
50.20416792297522
 20
10.93162430490018
 30
0.0
 11
50.20416792297522
 21
-17.06837557263908
 31
0.0
  0
CIRCLE
  5
7B
330
1F
100
AcDbEntity
  8
0
  6
CONTINUOUS
 62
     3
100
AcDbCircle
 10
-50.09583207702482
 20
-3.068375633869456
 30
0.0
 40
21.0
  0
CIRCLE
  5
7C
330
1F
100
AcDbEntity
  8
0
  6
CONTINUOUS
 62
     3
100
AcDbCircle
 10
-50.09583207702482
 20
4.931624366130544
 30
0.0
 40
6.0
  0
CIRCLE
  5
7D
330
1F
100
AcDbEntity
  8
0
  6
CONTINUOUS
 62
     3
100
AcDbCircle
 10
-50.09583207702482
 20
4.931624366130544
 30
0.0
 40
3.0
  0
LINE
  5
7E
330
1F
100
AcDbEntity
  8
0
  6
CONTINUOUS
 62
     3
100
AcDbLine
 10
-51.75414447220251
 20
7.431624366130544
 30
0.0
 11
-48.43751968184713
 21
7.431624366130544
 31
0.0
  0
CIRCLE
  5
7F
330
1F
100
AcDbEntity
  8
0
  6
CONTINUOUS
 62
     3
100
AcDbCircle
 10
-50.09583207702482
 20
4.931624366130544
 30
0.0
 40
2.5
  0
CIRCLE
  5
80
330
1F
100
AcDbEntity
  8
0
  6
CONTINUOUS
 62
     3
100
AcDbCircle
 10
-32.84583207702482
 20
3.174742577409271
 30
0.0
 40
2.25
  0
LINE
  5
81
330
1F
100
AcDbEntity
  8
0
  6
CONTINUOUS
 62
     3
100
AcDbLine
 10
-34.11862428316061
 20
4.447534783545061
 30
0.0
 11
-31.57303987088903
 21
1.901950371273481
 31
0.0
  0
LINE
  5
82
330
1F
100
AcDbEntity
  8
0
  6
CONTINUOUS
 62
     3
100
AcDbLine
 10
-31.57303987088903
 20
4.447534783545061
 30
0.0
 11
-34.11862428316061
 21
1.901950371273481
 31
0.0
  0
CIRCLE
  5
83
330
1F
100
AcDbEntity
  8
0
  6
CONTINUOUS
 62
     3
100
AcDbCircle
 10
-67.3458320770248
 20
3.174742577409271
 30
0.0
 40
2.25
  0
LINE
  5
84
330
1F
100
AcDbEntity
  8
0
  6
CONTINUOUS
 62
     3
100
AcDbLine
 10
-66.07303987088903
 20
4.447534783545061
 30
0.0
 11
-68.61862428316061
 21
1.901950371273481
 31
0.0
  0
LINE
  5
85
330
1F
100
AcDbEntity
  8
0
  6
CONTINUOUS
 62
     3
100
AcDbLine
 10
-68.61862428316061
 20
4.447534783545061
 30
0.0
 11
-66.07303987088903
 21
1.901950371273481
 31
0.0
  0
LINE
  5
86
330
1F
100
AcDbEntity
  8
0
  6
CONTINUOUS
 62
     3
100
AcDbLine
 10
-35.71196397104585
 20
-16.6368810161804
 30
0.0
 11
-37.06842448190107
 21
-14.69965464137814
 31
0.0
  0
ARC
  5
87
330
1F
100
AcDbEntity
  8
0
  6
CONTINUOUS
 62
     3
100
AcDbCircle
 10
-40.34503265905706
 20
-16.99396038678233
 30
0.0
 40
4.0
100
AcDbArc
 50
35.00000000000004
 51
215.0
  0
LINE
  5
88
330
1F
100
AcDbEntity
  8
0
  6
CONTINUOUS
 62
     3
100
AcDbLine
 10
-42.26518032535781
 20
-21.22549250698879
 30
0.0
 11
-43.621640836213
 21
-19.28826613218651
 31
0.0
  0
ARC
  5
89
330
1F
100
AcDbEntity
  8
0
  6
CONTINUOUS
 62
     3
100
AcDbCircle
 10
-34.89281192675684
 20
-16.06330457982936
 30
0.0
 40
1.0
100
AcDbArc
 50
215.0000000000001
 51
319.47751218593
  0
ARC
  5
8A
330
1F
100
AcDbEntity
  8
0
  6
CONTINUOUS
 62
     3
100
AcDbCircle
 10
-43.08433236964677
 20
-21.79906894333983
 30
0.0
 40
1.0
100
AcDbArc
 50
290.52248781407
 51
395.0
  0
LINE
  5
8B
330
1F
100
AcDbEntity
  8
0
  6
CONTINUOUS
 62
     3
100
AcDbLine
 10
-64.47970018300379
 20
-16.6368810161804
 30
0.0
 11
-63.12323967214855
 21
-14.69965464137814
 31
0.0
  0
ARC
  5
8C
330
1F
100
AcDbEntity
  8
0
  6
CONTINUOUS
 62
     3
100
AcDbCircle
 10
-59.84663149499263
 20
-16.99396038678233
 30
0.0
 40
4.0
100
AcDbArc
 50
325.0000000000001
 51
504.9999999999999
  0
LINE
  5
8D
330
1F
100
AcDbEntity
  8
0
  6
CONTINUOUS
 62
     3
100
AcDbLine
 10
-57.92648382869185
 20
-21.22549250698879
 30
0.0
 11
-56.57002331783664
 21
-19.28826613218651
 31
0.0
  0
ARC
  5
8E
330
1F
100
AcDbEntity
  8
0
  6
CONTINUOUS
 62
     3
100
AcDbCircle
 10
-57.10733178440287
 20
-21.79906894333983
 30
0.0
 40
1.0
100
AcDbArc
 50
145.0
 51
249.47751218593
  0
ARC
  5
8F
330
1F
100
AcDbEntity
  8
0
  6
CONTINUOUS
 62
     3
100
AcDbCircle
 10
-65.29885222729274
 20
-16.06330457982936
 30
0.0
 40
1.0
100
AcDbArc
 50
220.52248781407
 51
324.9999999999999
  0
ARC
  5
90
330
1F
100
AcDbEntity
  8
0
  6
CONTINUOUS
 62
     3
100
AcDbCircle
 10
-50.09583207702482
 20
-3.068375633869456
 30
0.0
 40
15.0
100
AcDbArc
 50
52.71897839381438
 51
127.2810216061856
  0
ARC
  5
91
330
1F
100
AcDbEntity
  8
0
  6
CONTINUOUS
 62
     3
100
AcDbCircle
 10
-50.09583207702482
 20
-3.068375633869456
 30
0.0
 40
15.0
100
AcDbArc
 50
159.8523446475814
 51
222.5462994057313
  0
ARC
  5
92
330
1F
100
AcDbEntity
  8
0
  6
CONTINUOUS
 62
     3
100
AcDbCircle
 10
-50.09583207702482
 20
-3.068375633869456
 30
0.0
 40
15.0
100
AcDbArc
 50
247.5610165036328
 51
292.5462994057313
  0
ARC
  5
93
330
1F
100
AcDbEntity
  8
0
  6
CONTINUOUS
 62
     3
100
AcDbCircle
 10
-50.09583207702482
 20
-3.068375633869456
 30
0.0
 40
15.0
100
AcDbArc
 50
317.4537005942688
 51
380.0122122748235
  0
LINE
  5
94
330
1F
100
AcDbEntity
  8
0
  6
CONTINUOUS
 62
     3
100
AcDbLine
 10
-62.35906849155129
 20
12.44333067592869
 30
0.0
 11
-60.54743717130136
 21
10.92319150327769
 31
0.0
  0
ARC
  5
95
330
1F
100
AcDbEntity
  8
0
  6
CONTINUOUS
 62
     3
100
AcDbCircle
 10
-61.71628088186476
 20
13.20937511904766
 30
0.0
 40
1.0
100
AcDbArc
 50
125.5224878140704
 51
230.0000000000001
  0
ARC
  5
96
330
1F
100
AcDbEntity
  8
0
  6
CONTINUOUS
 62
     3
100
AcDbCircle
 10
-63.11858761004744
 20
7.859013730801715
 30
0.0
 40
4.0
100
AcDbArc
 50
306.5094697819401
 51
410.0000000000013
  0
LINE
  5
97
330
1F
100
AcDbEntity
  8
0
  6
CONTINUOUS
 62
     3
100
AcDbLine
 10
-60.73876505331409
 20
4.643979578811562
 30
0.0
 11
-65.70970406927063
 21
0.9644065979160335
 31
0.0
  0
ARC
  5
98
330
1F
100
AcDbEntity
  8
0
  6
CONTINUOUS
 62
     3
100
AcDbCircle
 10
-67.3458320770248
 20
3.174742577409271
 30
0.0
 40
2.75
100
AcDbArc
 50
270.0
 51
306.5094697819401
  0
LINE
  5
99
330
1F
100
AcDbEntity
  8
0
  6
CONTINUOUS
 62
     3
100
AcDbLine
 10
-69.93983272166776
 20
0.4247425774092708
 30
0.0
 11
-67.3458320770248
 21
0.4247425774092708
 31
0.0
  0
ARC
  5
9A
330
1F
100
AcDbEntity
  8
0
  6
CONTINUOUS
 62
     3
100
AcDbCircle
 10
-69.93983272166776
 20
-0.5752574225907292
 30
0.0
 40
1.0
100
AcDbArc
 50
90.0
 51
172.8391145085254
  0
ARC
  5
9B
330
1F
100
AcDbEntity
  8
0
  6
CONTINUOUS
 62
     3
100
AcDbCircle
 10
-37.07307654400218
 20
7.859013730801715
 30
0.0
 40
4.0
100
AcDbArc
 50
129.9999999999987
 51
233.4905302180598
  0
ARC
  5
9C
330
1F
100
AcDbEntity
  8
0
  6
CONTINUOUS
 62
     3
100
AcDbCircle
 10
-38.47538327218486
 20
13.20937511904766
 30
0.0
 40
1.0
100
AcDbArc
 50
309.9999999999998
 51
414.4775121859296
  0
LINE
  5
9D
330
1F
100
AcDbEntity
  8
0
  6
CONTINUOUS
 62
     3
100
AcDbLine
 10
-37.8325956624983
 20
12.44333067592869
 30
0.0
 11
-39.64422698274827
 21
10.92319150327769
 31
0.0
  0
LINE
  5
9E
330
1F
100
AcDbEntity
  8
0
  6
CONTINUOUS
 62
     3
100
AcDbLine
 10
-39.45289910073554
 20
4.643979578811562
 30
0.0
 11
-34.48196008477901
 21
0.9644065979160335
 31
0.0
  0
ARC
  5
9F
330
1F
100
AcDbEntity
  8
0
  6
CONTINUOUS
 62
     3
100
AcDbCircle
 10
-32.84583207702482
 20
3.174742577409271
 30
0.0
 40
2.75
100
AcDbArc
 50
233.4905302180598
 51
270.0
  0
LINE
  5
A0
330
1F
100
AcDbEntity
  8
0
  6
CONTINUOUS
 62
     3
100
AcDbLine
 10
-30.25183143238186
 20
0.4247425774092708
 30
0.0
 11
-32.84583207702482
 21
0.4247425774092708
 31
0.0
  0
ARC
  5
A1
330
1F
100
AcDbEntity
  8
0
  6
CONTINUOUS
 62
     3
100
AcDbCircle
 10
-30.25183143238186
 20
-0.5752574225907292
 30
0.0
 40
1.0
100
AcDbArc
 50
7.160885491474587
 51
90.0
  0
ARC
  5
A2
330
1F
100
AcDbEntity
  8
0
  6
CONTINUOUS
 62
     3
100
AcDbCircle
 10
-50.09583207702482
 20
-3.068375633869456
 30
0.0
 40
20.5
100
AcDbArc
 50
247.0267879649833
 51
292.9732120350167
  0
ARC
  5
A3
330
1F
100
AcDbEntity
  8
0
  6
CONTINUOUS
 62
     3
100
AcDbCircle
 10
-50.09583207702482
 20
-3.068375633869456
 30
0.0
 40
20.5
100
AcDbArc
 50
317.0267879649832
 51
369.6116097124215
  0
ARC
  5
A4
330
1F
100
AcDbEntity
  8
0
  6
CONTINUOUS
 62
     3
100
AcDbCircle
 10
-50.09583207702482
 20
-3.068375633869456
 30
0.0
 40
20.5
100
AcDbArc
 50
52.21289995963027
 51
127.7871000403697
  0
ARC
  5
A5
330
1F
100
AcDbEntity
  8
0
  6
CONTINUOUS
 62
     3
100
AcDbCircle
 10
-50.09583207702482
 20
-3.068375633869456
 30
0.0
 40
15.0
100
AcDbArc
 50
159.8523446475814
 51
222.5462994057313
  0
LINE
  5
A6
330
1F
100
AcDbEntity
  8
0
  6
CONTINUOUS
 62
     3
100
AcDbLine
 10
18.90416792297518
 20
-23.56837563386945
 30
0.0
 11
18.90416792297518
 21
17.43162436613054
 31
0.0
  0
LINE
  5
A7
330
1F
100
AcDbEntity
  8
0
  6
CONTINUOUS
 62
     3
100
AcDbLine
 10
25.85416792297523
 20
-23.31837563386945
 30
0.0
 11
25.60416792297523
 21
-23.31837563386945
 31
0.0
  0
LINE
  5
A8
330
1F
100
AcDbEntity
  8
0
  6
CONTINUOUS
 62
     3
100
AcDbLine
 10
25.60416792297523
 20
17.73162436613055
 30
0.0
 11
25.60416792297523
 21
-23.86837563386945
 31
0.0
  0
LINE
  5
A9
330
1F
100
AcDbEntity
  8
0
  6
CONTINUOUS
 62
     3
100
AcDbLine
 10
25.85416792297523
 20
17.18162436613054
 30
0.0
 11
25.60416792297523
 21
17.18162436613054
 31
0.0
  0
LINE
  5
AA
330
1F
100
AcDbEntity
  8
0
  6
CONTINUOUS
 62
     3
100
AcDbLine
 10
19.40416792297518
 20
-24.06837563386945
 30
0.0
 11
25.40416792297523
 21
-24.06837563386945
 31
0.0
  0
LINE
  5
AB
330
1F
100
AcDbEntity
  8
0
  6
CONTINUOUS
 62
     3
100
AcDbLine
 10
25.40416792297523
 20
17.93162436613054
 30
0.0
 11
19.40416792297518
 21
17.93162436613054
 31
0.0
  0
LINE
  5
AC
330
1F
100
AcDbEntity
  8
0
  6
CONTINUOUS
 62
     3
100
AcDbLine
 10
18.90416792297518
 20
17.43162436613054
 30
0.0
 11
19.40416792297518
 21
17.93162436613054
 31
0.0
  0
LINE
  5
AD
330
1F
100
AcDbEntity
  8
0
  6
CONTINUOUS
 62
     3
100
AcDbLine
 10
18.90416792297518
 20
-23.56837563386945
 30
0.0
 11
19.40416792297518
 21
-24.06837563386945
 31
0.0
  0
LINE
  5
AE
330
1F
100
AcDbEntity
  8
0
  6
CONTINUOUS
 62
     3
100
AcDbLine
 10
25.60416792297523
 20
17.73162436613055
 30
0.0
 11
25.40416792297523
 21
17.93162436613054
 31
0.0
  0
LINE
  5
AF
330
1F
100
AcDbEntity
  8
0
  6
CONTINUOUS
 62
     3
100
AcDbLine
 10
25.60416792297523
 20
-23.86837563386945
 30
0.0
 11
25.40416792297523
 21
-24.06837563386945
 31
0.0
  0
LINE
  5
B0
330
1F
100
AcDbEntity
  8
0
  6
CONTINUOUS
 62
     3
100
AcDbLine
 10
24.85416792297522
 20
-0.4506015120267559
 30
0.0
 11
24.85416792297522
 21
14.02326265669385
 31
0.0
  0
LINE
  5
B1
330
1F
100
AcDbEntity
  8
0
  6
CONTINUOUS
 62
     3
100
AcDbLine
 10
50.40416792297523
 20
-23.86837563386946
 30
0.0
 11
50.40416792297523
 21
17.73162436613055
 31
0.0
  0
LINE
  5
B2
330
1F
100
AcDbEntity
  8
0
  6
CONTINUOUS
 62
     3
100
AcDbLine
 10
26.05416792297522
 20
17.93162436613054
 30
0.0
 11
50.20416792297522
 21
17.93162436613054
 31
0.0
  0
LINE
  5
B3
330
1F
100
AcDbEntity
  8
0
  6
CONTINUOUS
 62
     3
100
AcDbLine
 10
25.85416792297523
 20
-23.86837563386946
 30
0.0
 11
25.85416792297523
 21
17.73162436613055
 31
0.0
  0
LINE
  5
B4
330
1F
100
AcDbEntity
  8
0
  6
CONTINUOUS
 62
     3
100
AcDbLine
 10
26.05416792297522
 20
-24.06837563386947
 30
0.0
 11
50.20416792297522
 21
-24.06837563386947
 31
0.0
  0
LINE
  5
B5
330
1F
100
AcDbEntity
  8
0
  6
CONTINUOUS
 62
     3
100
AcDbLine
 10
50.20416792297522
 20
17.93162436613054
 30
0.0
 11
50.40416792297523
 21
17.73162436613055
 31
0.0
  0
LINE
  5
B6
330
1F
100
AcDbEntity
  8
0
  6
CONTINUOUS
 62
     3
100
AcDbLine
 10
50.40416792297523
 20
-23.86837563386946
 30
0.0
 11
50.20416792297522
 21
-24.06837563386947
 31
0.0
  0
LINE
  5
B7
330
1F
100
AcDbEntity
  8
0
  6
CONTINUOUS
 62
     3
100
AcDbLine
 10
25.85416792297523
 20
-23.86837563386946
 30
0.0
 11
26.05416792297522
 21
-24.06837563386947
 31
0.0
  0
LINE
  5
B8
330
1F
100
AcDbEntity
  8
0
  6
CONTINUOUS
 62
     3
100
AcDbLine
 10
26.05416792297522
 20
17.93162436613054
 30
0.0
 11
25.85416792297523
 21
17.73162436613055
 31
0.0
  0
LINE
  5
B9
330
1F
100
AcDbEntity
  8
0
  6
CONTINUOUS
 62
     3
100
AcDbLine
 10
-0.5958320770247312
 20
1.931624366130544
 30
0.0
 11
15.90416792297527
 21
1.931624366130544
 31
0.0
  0
LINE
  5
BA
330
1F
100
AcDbEntity
  8
0
  6
CONTINUOUS
 62
     3
100
AcDbLine
 10
-0.5958320770247312
 20
1.931624366130544
 30
0.0
 11
-1.095832077024731
 21
2.431624366130544
 31
0.0
  0
LINE
  5
BB
330
1F
100
AcDbEntity
  8
0
  6
CONTINUOUS
 62
     3
100
AcDbLine
 10
10.90416792297528
 20
7.931624366130544
 30
0.0
 11
15.90416792297527
 21
7.931624366130544
 31
0.0
  0
ARC
  5
BC
330
1F
100
AcDbEntity
  8
0
  6
CONTINUOUS
 62
     3
100
AcDbCircle
 10
-50.09583207702482
 20
-3.068375633869456
 30
0.0
 40
20.5
100
AcDbArc
 50
170.3883902875786
 51
222.9732120350168
  0
CIRCLE
  5
BD
330
1F
100
AcDbEntity
  8
0
  6
CONTINUOUS
 62
     3
100
AcDbCircle
 10
-32.09583207702482
 20
-3.068375633869456
 30
0.0
 40
1.25
  0
CIRCLE
  5
BE
330
1F
100
AcDbEntity
  8
0
  6
CONTINUOUS
 62
     3
100
AcDbCircle
 10
-50.09583207702482
 20
14.93162436613054
 30
0.0
 40
1.25
  0
CIRCLE
  5
BF
330
1F
100
AcDbEntity
  8
0
  6
CONTINUOUS
 62
     3
100
AcDbCircle
 10
-68.0958320770248
 20
-3.068375633869442
 30
0.0
 40
1.25
  0
CIRCLE
  5
C0
330
1F
100
AcDbEntity
  8
0
  6
CONTINUOUS
 62
     3
100
AcDbCircle
 10
-50.09583207702482
 20
-21.06837563386947
 30
0.0
 40
1.25
  0
CIRCLE
  5
C1
330
1F
100
AcDbEntity
  8
0
  6
CONTINUOUS
 62
     3
100
AcDbCircle
 10
-32.09583207702479
 20
-3.06837563386947
 30
0.0
 40
1.25
  0
CIRCLE
  5
C2
330
1F
100
AcDbEntity
  8
0
  6
CONTINUOUS
 62
     3
100
AcDbCircle
 10
-50.09583207702482
 20
4.931624366130544
 30
0.0
 40
4.25
  0
LINE
  5
C3
330
1F
100
AcDbEntity
  8
0
  6
CONTINUOUS
 62
     3
100
AcDbLine
 10
-35.90635035504437
 20
9.025739919759495
 30
0.0
 11
-38.23980273295999
 21
6.692287541843903
 31
0.0
  0
LINE
  5
C4
330
1F
100
AcDbEntity
  8
0
  6
CONTINUOUS
 62
     3
100
AcDbLine
 10
-38.23980273295999
 20
9.025739919759495
 30
0.0
 11
-35.90635035504437
 21
6.692287541843903
 31
0.0
  0
CIRCLE
  5
C5
330
1F
100
AcDbEntity
  8
0
  6
CONTINUOUS
 62
     3
100
AcDbCircle
 10
-37.07307654400218
 20
7.859013730801699
 30
0.0
 40
1.65
  0
CIRCLE
  5
C6
330
1F
100
AcDbEntity
  8
0
  6
CONTINUOUS
 62
     3
100
AcDbCircle
 10
-37.07307654400218
 20
7.859013730801699
 30
0.0
 40
2.95
  0
CIRCLE
  5
C7
330
1F
100
AcDbEntity
  8
0
  6
CONTINUOUS
 62
     3
100
AcDbCircle
 10
-37.07307654400218
 20
7.859013730801699
 30
0.0
 40
3.5
  0
LINE
  5
C8
330
1F
100
AcDbEntity
  8
0
  6
CONTINUOUS
 62
     3
100
AcDbLine
 10
-39.1783064700992
 20
-15.82723419782455
 30
0.0
 11
-41.51175884801482
 21
-18.16068657574014
 31
0.0
  0
LINE
  5
C9
330
1F
100
AcDbEntity
  8
0
  6
CONTINUOUS
 62
     3
100
AcDbLine
 10
-41.51175884801482
 20
-15.82723419782455
 30
0.0
 11
-39.1783064700992
 21
-18.16068657574014
 31
0.0
  0
CIRCLE
  5
CA
330
1F
100
AcDbEntity
  8
0
  6
CONTINUOUS
 62
     3
100
AcDbCircle
 10
-40.34503265905701
 20
-16.99396038678234
 30
0.0
 40
1.65
  0
CIRCLE
  5
CB
330
1F
100
AcDbEntity
  8
0
  6
CONTINUOUS
 62
     3
100
AcDbCircle
 10
-40.34503265905701
 20
-16.99396038678234
 30
0.0
 40
2.95
  0
CIRCLE
  5
CC
330
1F
100
AcDbEntity
  8
0
  6
CONTINUOUS
 62
     3
100
AcDbCircle
 10
-40.34503265905701
 20
-16.99396038678234
 30
0.0
 40
3.5
  0
LINE
  5
CD
330
1F
100
AcDbEntity
  8
0
  6
CONTINUOUS
 62
     3
100
AcDbLine
 10
-58.6799053060348
 20
-15.82723419782455
 30
0.0
 11
-61.01335768395042
 21
-18.16068657574014
 31
0.0
  0
LINE
  5
CE
330
1F
100
AcDbEntity
  8
0
  6
CONTINUOUS
 62
     3
100
AcDbLine
 10
-61.01335768395042
 20
-15.82723419782455
 30
0.0
 11
-58.6799053060348
 21
-18.16068657574014
 31
0.0
  0
CIRCLE
  5
CF
330
1F
100
AcDbEntity
  8
0
  6
CONTINUOUS
 62
     3
100
AcDbCircle
 10
-59.84663149499261
 20
-16.99396038678235
 30
0.0
 40
1.65
  0
CIRCLE
  5
D0
330
1F
100
AcDbEntity
  8
0
  6
CONTINUOUS
 62
     3
100
AcDbCircle
 10
-59.84663149499261
 20
-16.99396038678235
 30
0.0
 40
2.95
  0
CIRCLE
  5
D1
330
1F
100
AcDbEntity
  8
0
  6
CONTINUOUS
 62
     3
100
AcDbCircle
 10
-59.84663149499261
 20
-16.99396038678235
 30
0.0
 40
3.5
  0
LINE
  5
D2
330
1F
100
AcDbEntity
  8
0
  6
CONTINUOUS
 62
     3
100
AcDbLine
 10
-61.9518614210896
 20
9.02573991975949
 30
0.0
 11
-64.28531379900522
 21
6.692287541843898
 31
0.0
  0
LINE
  5
D3
330
1F
100
AcDbEntity
  8
0
  6
CONTINUOUS
 62
     3
100
AcDbLine
 10
-64.28531379900522
 20
9.02573991975949
 30
0.0
 11
-61.9518614210896
 21
6.692287541843898
 31
0.0
  0
CIRCLE
  5
D4
330
1F
100
AcDbEntity
  8
0
  6
CONTINUOUS
 62
     3
100
AcDbCircle
 10
-63.11858761004741
 20
7.859013730801694
 30
0.0
 40
1.65
  0
CIRCLE
  5
D5
330
1F
100
AcDbEntity
  8
0
  6
CONTINUOUS
 62
     3
100
AcDbCircle
 10
-63.11858761004741
 20
7.859013730801694
 30
0.0
 40
2.95
  0
CIRCLE
  5
D6
330
1F
100
AcDbEntity
  8
0
  6
CONTINUOUS
 62
     3
100
AcDbCircle
 10
-63.11858761004741
 20
7.859013730801694
 30
0.0
 40
3.5
  0
LINE
  5
D7
330
1F
100
AcDbEntity
  8
LAYER0001
  6
CONTINUOUS
 62
     3
100
AcDbLine
 10
18.90416792297518
 20
-1.068375633869428
 30
0.0
 11
16.40416792297524
 21
-1.068375633869428
 31
0.0
  0
LINE
  5
D8
330
1F
100
AcDbEntity
  8
LAYER0001
  6
CONTINUOUS
 62
     3
100
AcDbLine
 10
18.90416792297527
 20
10.93162436613057
 30
0.0
 11
16.40416792297527
 21
10.93162436613057
 31
0.0
  0
LINE
  5
D9
330
1F
100
AcDbEntity
  8
LAYER0001
  6
CONTINUOUS
 62
     3
100
AcDbLine
 10
15.90416792297527
 20
10.43162436613057
 30
0.0
 11
15.90416792297524
 21
-0.5683756338694277
 31
0.0
  0
LINE
  5
DA
330
1F
100
AcDbEntity
  8
LAYER0001
  6
CONTINUOUS
 62
     3
100
AcDbLine
 10
16.40416792297524
 20
-1.068375633869428
 30
0.0
 11
15.90416792297524
 21
-0.5683756338694277
 31
0.0
  0
LINE
  5
DB
330
1F
100
AcDbEntity
  8
LAYER0001
  6
CONTINUOUS
 62
     3
100
AcDbLine
 10
16.40416792297527
 20
10.93162436613057
 30
0.0
 11
15.90416792297526
 21
10.43162436613057
 31
0.0
  0
LINE
  5
DC
330
1F
100
AcDbEntity
  8
LAYER0001
  6
CONTINUOUS
 62
     3
100
AcDbLine
 10
16.40416792297527
 20
10.93162430490018
 30
0.0
 11
16.40416792297527
 21
-1.068375633869428
 31
0.0
  0
LINE
  5
DD
330
1F
100
AcDbEntity
  8
LAYER0001
  6
CONTINUOUS
 62
     3
100
AcDbLine
 10
19.40416792297518
 20
17.93162436613054
 30
0.0
 11
19.40416792297518
 21
14.02326265669385
 31
0.0
  0
LINE
  5
DE
330
1F
100
AcDbEntity
  8
LAYER0001
  6
CONTINUOUS
 62
     3
100
AcDbLine
 10
19.40416792297518
 20
-0.4506015120267559
 30
0.0
 11
19.40416792297518
 21
-16.71305102712734
 31
0.0
  0
LINE
  5
DF
330
1F
100
AcDbEntity
  8
LAYER0001
  6
CONTINUOUS
 62
     3
100
AcDbLine
 10
19.40416792297518
 20
-22.73560360881322
 30
0.0
 11
19.40416792297518
 21
-24.06837563386945
 31
0.0
  0
LINE
  5
E0
330
1F
100
AcDbEntity
  8
LAYER0001
  6
CONTINUOUS
 62
     3
100
AcDbLine
 10
-1.095832077024717
 20
7.431624366130544
 30
0.0
 11
-1.095832077024731
 21
2.431624366130544
 31
0.0
  0
LINE
  5
E1
330
1F
100
AcDbEntity
  8
LAYER0001
  6
CONTINUOUS
 62
     3
100
AcDbLine
 10
-0.5958320770247312
 20
7.431624366130544
 30
0.0
 11
-0.5958320770247312
 21
1.931624366130544
 31
0.0
  0
LINE
  5
E2
330
1F
100
AcDbEntity
  8
LAYER0001
  6
CONTINUOUS
 62
     3
100
AcDbLine
 10
10.90416792297528
 20
7.431624366130544
 30
0.0
 11
-1.095832077024717
 21
7.431624366130544
 31
0.0
  0
LINE
  5
E3
330
1F
100
AcDbEntity
  8
LAYER0001
  6
CONTINUOUS
 62
     3
100
AcDbLine
 10
10.90416792297528
 20
7.931624366130572
 30
0.0
 11
10.90416792297528
 21
7.431624366130544
 31
0.0
  0
LINE
  5
E4
330
1F
100
AcDbEntity
  8
LAYER0016
  6
CONTINUOUS
 62
     3
100
AcDbLine
 10
18.90416792297518
 20
14.02326265669385
 30
0.0
 11
24.85416792297523
 21
14.02326265669385
 31
0.0
  0
LINE
  5
E5
330
1F
100
AcDbEntity
  8
LAYER0016
  6
CONTINUOUS
 62
     3
100
AcDbLine
 10
18.90416792297518
 20
-0.4506015120267559
 30
0.0
 11
24.85416792297522
 21
-0.4506015120267559
 31
0.0
  0
LINE
  5
E6
330
1F
100
AcDbEntity
  8
LAYER0016
  6
CONTINUOUS
 62
     3
100
AcDbLine
 10
18.90416792297518
 20
-22.73560360881322
 30
0.0
 11
24.85416792297522
 21
-22.73560360881322
 31
0.0
  0
LINE
  5
E7
330
1F
100
AcDbEntity
  8
LAYER0016
  6
CONTINUOUS
 62
     3
100
AcDbLine
 10
18.90416792297518
 20
-16.71305102712734
 30
0.0
 11
24.85416792297522
 21
-16.71305102712734
 31
0.0
  0
LINE
  5
E8
330
1F
100
AcDbEntity
  8
LAYER0016
  6
CONTINUOUS
 62
     3
100
AcDbLine
 10
24.85416792297522
 20
-16.71305102712734
 30
0.0
 11
24.85416792297522
 21
-22.73560360881322
 31
0.0
  0
LINE
  5
E9
330
1F
100
AcDbEntity
  8
LAYER0016
  6
CONTINUOUS
 62
     3
100
AcDbLine
 10
24.85416792297522
 20
11.35901373080172
 30
0.0
 11
24.85416792297522
 21
4.359013730801715
 31
0.0
  0
LINE
  5
EA
330
1F
100
AcDbEntity
  8
LAYER0016
  6
CONTINUOUS
 62
     3
100
AcDbLine
 10
24.85416792297522
 20
-16.71305102712734
 30
0.0
 11
24.85416792297522
 21
-20.49396038678233
 31
0.0
  0
LINE
  5
EB
330
1F
100
AcDbEntity
  8
LAYER0016
  6
CONTINUOUS
 62
     3
100
AcDbLine
 10
24.85416792297522
 20
5.424742577409271
 30
0.0
 11
23.85416792297522
 21
5.424742577409271
 31
0.0
  0
LINE
  5
EC
330
1F
100
AcDbEntity
  8
LAYER0016
  6
CONTINUOUS
 62
     3
100
AcDbLine
 10
24.85416792297522
 20
0.9247425774092708
 30
0.0
 11
23.85416792297522
 21
0.9247425774092708
 31
0.0
  0
LINE
  5
ED
330
1F
100
AcDbEntity
  8
LAYER0016
  6
CONTINUOUS
 62
     3
100
AcDbLine
 10
23.35416792297522
 20
1.424742577409271
 30
0.0
 11
23.35416792297522
 21
4.924742577409271
 31
0.0
  0
ARC
  5
EE
330
1F
100
AcDbEntity
  8
LAYER0016
  6
CONTINUOUS
 62
     3
100
AcDbCircle
 10
23.85416792297522
 20
4.924742577409271
 30
0.0
 40
0.5
100
AcDbArc
 50
90.0
 51
180.0
  0
ARC
  5
EF
330
1F
100
AcDbEntity
  8
LAYER0016
  6
CONTINUOUS
 62
     3
100
AcDbCircle
 10
23.85416792297522
 20
1.424742577409271
 30
0.0
 40
0.5
100
AcDbArc
 50
180.0
 51
270.0
  0
LINE
  5
F0
330
1F
100
AcDbEntity
  8
LAYER0016
  6
CONTINUOUS
 62
     3
100
AcDbLine
 10
50.40416792297523
 20
9.359013730801713
 30
0.0
 11
53.65416792297522
 21
9.359013730801713
 31
0.0
  0
LINE
  5
F1
330
1F
100
AcDbEntity
  8
LAYER0016
  6
CONTINUOUS
 62
     3
100
AcDbLine
 10
50.40416792297523
 20
6.359013730801713
 30
0.0
 11
53.65416792297522
 21
6.359013730801713
 31
0.0
  0
LINE
  5
F2
330
1F
100
AcDbEntity
  8
LAYER0016
  6
CONTINUOUS
 62
     3
100
AcDbLine
 10
53.65416792297522
 20
9.359013730801713
 30
0.0
 11
53.65416792297522
 21
6.359013730801713
 31
0.0
  0
LINE
  5
F3
330
1F
100
AcDbEntity
  8
LAYER0016
  6
CONTINUOUS
 62
     3
100
AcDbLine
 10
50.40416792297523
 20
-15.49396038678233
 30
0.0
 11
53.65416792297522
 21
-15.49396038678233
 31
0.0
  0
LINE
  5
F4
330
1F
100
AcDbEntity
  8
LAYER0016
  6
CONTINUOUS
 62
     3
100
AcDbLine
 10
50.40416792297523
 20
-18.49396038678233
 30
0.0
 11
53.65416792297522
 21
-18.49396038678233
 31
0.0
  0
LINE
  5
F5
330
1F
100
AcDbEntity
  8
LAYER0016
  6
CONTINUOUS
 62
     3
100
AcDbLine
 10
53.65416792297522
 20
-15.49396038678233
 30
0.0
 11
53.65416792297522
 21
-18.49396038678233
 31
0.0
  0
LINE
  5
F6
330
1F
100
AcDbEntity
  8
LAYER0016
  6
CONTINUOUS
 62
     3
100
AcDbLine
 10
23.65416792297522
 20
10.80901373080172
 30
0.0
 11
23.65416792297522
 21
5.424742577409255
 31
0.0
  0
LINE
  5
F7
330
1F
100
AcDbEntity
  8
LAYER0016
  6
CONTINUOUS
 62
     3
100
AcDbLine
 10
23.65416792297522
 20
10.60901373080171
 30
0.0
 11
22.65553838822065
 21
10.55667777455877
 31
0.0
  0
LINE
  5
F8
330
1F
100
AcDbEntity
  8
LAYER0016
  6
CONTINUOUS
 62
     3
100
AcDbLine
 10
23.35416792297522
 20
5.124736064586621
 30
0.0
 11
22.65553838822065
 21
5.161349687044655
 31
0.0
  0
ARC
  5
F9
330
1F
100
AcDbEntity
  8
LAYER0016
  6
CONTINUOUS
 62
     3
100
AcDbCircle
 10
22.69325529844668
 20
9.836996255096928
 30
0.0
 40
0.7206691715148531
100
AcDbArc
 50
93.0
 51
165.1140874784823
  0
ARC
  5
FA
330
1F
100
AcDbEntity
  8
LAYER0016
  6
CONTINUOUS
 62
     3
100
AcDbCircle
 10
22.69325529844668
 20
5.881031206506499
 30
0.0
 40
0.7206691715148531
100
AcDbArc
 50
194.8859125215176
 51
267.0
  0
ARC
  5
FB
330
1F
100
AcDbEntity
  8
LAYER0016
  6
CONTINUOUS
 62
     3
100
AcDbCircle
 10
28.65416792297522
 20
7.859013730801713
 30
0.0
 40
7.0
100
AcDbArc
 50
162.0
 51
198.0
  0
LINE
  5
FC
330
1F
100
AcDbEntity
  8
LAYER0016
  6
CONTINUOUS
 62
     3
100
AcDbLine
 10
24.35416792297522
 20
11.35901373080171
 30
0.0
 11
24.85416792297522
 21
11.35901373080171
 31
0.0
  0
LINE
  5
FD
330
1F
100
AcDbEntity
  8
LAYER0016
  6
CONTINUOUS
 62
     3
100
AcDbLine
 10
23.65416792297522
 20
10.80901373080172
 30
0.0
 11
24.35416792297522
 21
10.80901373080172
 31
0.0
  0
LINE
  5
FE
330
1F
100
AcDbEntity
  8
LAYER0016
  6
CONTINUOUS
 62
     3
100
AcDbLine
 10
23.65416792297522
 20
7.859013730801713
 30
0.0
 11
24.35416792297522
 21
8.046578165503497
 31
0.0
  0
LINE
  5
FF
330
1F
100
AcDbEntity
  8
LAYER0016
  6
CONTINUOUS
 62
     3
100
AcDbLine
 10
23.65416792297522
 20
7.671449296099929
 30
0.0
 11
24.35416792297522
 21
7.859013730801713
 31
0.0
  0
LINE
  5
100
330
1F
100
AcDbEntity
  8
LAYER0016
  6
CONTINUOUS
 62
     3
100
AcDbLine
 10
24.35416792297522
 20
11.35901373080171
 30
0.0
 11
24.35416792297522
 21
5.424742577409255
 31
0.0
  0
LINE
  5
101
330
1F
100
AcDbEntity
  8
LAYER0016
  6
CONTINUOUS
 62
     3
100
AcDbLine
 10
24.85416792297522
 20
-16.71305102712734
 30
0.0
 11
24.85416792297522
 21
-20.49396038678233
 31
0.0
  0
LINE
  5
102
330
1F
100
AcDbEntity
  8
LAYER0016
  6
CONTINUOUS
 62
     3
100
AcDbLine
 10
24.35416792297522
 20
-16.71305102712734
 30
0.0
 11
24.35416792297522
 21
-20.49396038678233
 31
0.0
  0
LINE
  5
103
330
1F
100
AcDbEntity
  8
LAYER0016
  6
CONTINUOUS
 62
     3
100
AcDbLine
 10
24.35416792297522
 20
-20.49396038678233
 30
0.0
 11
24.85416792297522
 21
-20.49396038678233
 31
0.0
  0
LINE
  5
104
330
1F
100
AcDbEntity
  8
LAYER0016
  6
CONTINUOUS
 62
     3
100
AcDbLine
 10
23.65416792297522
 20
-16.71305102712734
 30
0.0
 11
23.65416792297522
 21
-19.94396038678233
 31
0.0
  0
LINE
  5
105
330
1F
100
AcDbEntity
  8
LAYER0016
  6
CONTINUOUS
 62
     3
100
AcDbLine
 10
23.65416792297522
 20
-19.94396038678233
 30
0.0
 11
24.35416792297522
 21
-19.94396038678233
 31
0.0
  0
LINE
  5
106
330
1F
100
AcDbEntity
  8
LAYER0016
  6
CONTINUOUS
 62
     3
100
AcDbLine
 10
23.65416792297522
 20
-16.99396038678233
 30
0.0
 11
24.35416792297522
 21
-16.80639595208054
 31
0.0
  0
LINE
  5
107
330
1F
100
AcDbEntity
  8
LAYER0016
  6
CONTINUOUS
 62
     3
100
AcDbLine
 10
23.65416792297522
 20
-17.18152482148411
 30
0.0
 11
24.35416792297522
 21
-16.99396038678233
 31
0.0
  0
LINE
  5
108
330
1F
100
AcDbEntity
  8
LAYER0016
  6
CONTINUOUS
 62
     3
100
AcDbLine
 10
23.65416792297522
 20
-19.74396038678233
 30
0.0
 11
22.65553838822065
 21
-19.69162443053939
 31
0.0
  0
ARC
  5
109
330
1F
100
AcDbEntity
  8
LAYER0016
  6
CONTINUOUS
 62
     3
100
AcDbCircle
 10
22.69325529844668
 20
-18.97194291107754
 30
0.0
 40
0.7206691715148531
100
AcDbArc
 50
194.8859125215176
 51
267.0
  0
ARC
  5
10A
330
1F
100
AcDbEntity
  8
LAYER0016
  6
CONTINUOUS
 62
     3
100
AcDbCircle
 10
28.65416792297522
 20
-16.99396038678233
 30
0.0
 40
7.0
100
AcDbArc
 50
177.7001080328733
 51
198.0
  0
LINE
  5
10B
330
1F
100
AcDbEntity
  8
0
  6
DASHED2
 62
     9
100
AcDbLine
 10
49.30416792297523
 20
10.93162436613054
 30
0.0
 11
49.30416792297522
 21
-17.06837563386947
 31
0.0
  0
LINE
  5
10C
330
1F
100
AcDbEntity
  8
0
  6
DASHED2
 62
     9
100
AcDbLine
 10
49.30416792297523
 20
10.93162436613054
 30
0.0
 11
50.20416792297522
 21
10.93162436613054
 31
0.0
  0
LINE
  5
10D
330
1F
100
AcDbEntity
  8
0
  6
DASHED2
 62
     9
100
AcDbLine
 10
49.30416792297522
 20
-17.06837563386947
 30
0.0
 11
50.20416792297522
 21
-17.06837563386947
 31
0.0
  0
LINE
  5
10E
330
1F
100
AcDbEntity
  8
0
  6
DASHED2
 62
     9
100
AcDbLine
 10
50.40416792297523
 20
11.13162436613056
 30
0.0
 11
50.20416792297522
 21
10.93162436613054
 31
0.0
  0
LINE
  5
10F
330
1F
100
AcDbEntity
  8
0
  6
DASHED2
 62
     9
100
AcDbLine
 10
50.40416792297523
 20
-17.26837563386947
 30
0.0
 11
50.20416792297522
 21
-17.06837563386947
 31
0.0
  0
CIRCLE
  5
110
330
1F
100
AcDbEntity
  8
0
  6
CONTINUOUS
 62
     9
100
AcDbCircle
 10
-32.09583207702482
 20
-3.068375633869456
 30
0.0
 40
1.5
  0
CIRCLE
  5
111
330
1F
100
AcDbEntity
  8
0
  6
CONTINUOUS
 62
     9
100
AcDbCircle
 10
-50.09583207702482
 20
14.93162436613054
 30
0.0
 40
1.5
  0
CIRCLE
  5
112
330
1F
100
AcDbEntity
  8
0
  6
CONTINUOUS
 62
     9
100
AcDbCircle
 10
-68.0958320770248
 20
-3.068375633869442
 30
0.0
 40
1.5
  0
CIRCLE
  5
113
330
1F
100
AcDbEntity
  8
0
  6
CONTINUOUS
 62
     9
100
AcDbCircle
 10
-50.09583207702482
 20
-21.06837563386947
 30
0.0
 40
1.5
  0
CIRCLE
  5
114
330
1F
100
AcDbEntity
  8
0
  6
CONTINUOUS
 62
     9
100
AcDbCircle
 10
-32.09583207702479
 20
-3.06837563386947
 30
0.0
 40
1.5
  0
LINE
  5
115
330
1F
100
AcDbEntity
  8
0
  6
CONTINUOUS
 62
     9
100
AcDbLine
 10
15.90416792297526
 20
11.43162436613057
 30
0.0
 11
15.90416792297526
 21
27.55934182652872
 31
0.0
  0
LINE
  5
116
330
1F
100
AcDbEntity
  8
0
  6
CONTINUOUS
 62
     9
100
AcDbLine
 10
15.90416792297526
 20
27.05934182652872
 30
0.0
 11
18.90416792297518
 21
27.05934182652872
 31
0.0
  0
LINE
  5
117
330
1F
100
AcDbEntity
  8
0
  6
CONTINUOUS
 62
     9
100
AcDbLine
 10
-1.095832077024717
 20
8.431624366130544
 30
0.0
 11
-1.095832077024717
 21
32.55934182652872
 31
0.0
  0
LINE
  5
118
330
1F
100
AcDbEntity
  8
0
  6
CONTINUOUS
 62
     9
100
AcDbLine
 10
18.90416792297518
 20
18.43162436613054
 30
0.0
 11
18.90416792297518
 21
32.55934182652872
 31
0.0
  0
LINE
  5
119
330
1F
100
AcDbEntity
  8
0
  6
CONTINUOUS
 62
     9
100
AcDbLine
 10
50.40416792297523
 20
18.73162436613055
 30
0.0
 11
50.40416792297523
 21
32.55934182652872
 31
0.0
  0
LINE
  5
11A
330
1F
100
AcDbEntity
  8
0
  6
CONTINUOUS
 62
     9
100
AcDbLine
 10
49.30416792297523
 20
11.93162436613054
 30
0.0
 11
49.30416792297523
 21
27.55934182652872
 31
0.0
  0
LINE
  5
11B
330
1F
100
AcDbEntity
  8
0
  6
CONTINUOUS
 62
     9
100
AcDbLine
 10
50.40416792297523
 20
27.05934182652872
 30
0.0
 11
49.30416792297523
 21
27.05934182652872
 31
0.0
  0
LINE
  5
11C
330
1F
100
AcDbEntity
  8
0
  6
CONTINUOUS
 62
     9
100
AcDbLine
 10
54.2271606193903
 20
21.35363217981643
 30
0.0
 11
77.06182232228348
 21
21.35363217981643
 31
0.0
  0
LINE
  5
11D
330
1F
100
AcDbEntity
  8
0
  6
DIVIDE
 62
     9
100
AcDbLine
 10
42.60416792297523
 20
0.2516243661305513
 30
0.0
 11
47.10416792297523
 21
0.2516243661305513
 31
0.0
  0
LINE
  5
11E
330
1F
100
AcDbEntity
  8
0
  6
DIVIDE
 62
     9
100
AcDbLine
 10
47.10416792297523
 20
0.2516243661305513
 30
0.0
 11
47.10416792297523
 21
-3.068375633869456
 31
0.0
  0
LINE
  5
11F
330
1F
100
AcDbEntity
  8
0
  6
DIVIDE
 62
     9
100
AcDbLine
 10
42.60416792297523
 20
0.2516243661305513
 30
0.0
 11
42.60416792297523
 21
-3.068375633869456
 31
0.0
  0
LINE
  5
120
330
1F
100
AcDbEntity
  8
0
  6
DIVIDE
 62
     9
100
AcDbLine
 10
42.60416792297523
 20
-6.388375633869464
 30
0.0
 11
47.10416792297523
 21
-6.388375633869464
 31
0.0
  0
LINE
  5
121
330
1F
100
AcDbEntity
  8
0
  6
DIVIDE
 62
     9
100
AcDbLine
 10
47.10416792297523
 20
-6.388375633869464
 30
0.0
 11
47.10416792297523
 21
-3.068375633869456
 31
0.0
  0
LINE
  5
122
330
1F
100
AcDbEntity
  8
0
  6
DIVIDE
 62
     9
100
AcDbLine
 10
42.60416792297523
 20
-6.388375633869464
 30
0.0
 11
42.60416792297523
 21
-3.068375633869456
 31
0.0
  0
LINE
  5
123
330
1F
100
AcDbEntity
  8
0
  6
CENTER
 62
     9
100
AcDbLine
 10
42.30416792297523
 20
-5.988375633869458
 30
0.0
 11
47.40416792297523
 21
-5.988375633869458
 31
0.0
  0
LINE
  5
124
330
1F
100
AcDbEntity
  8
0
  6
CENTER
 62
     9
100
AcDbLine
 10
42.30416792297523
 20
-0.1483756338694544
 30
0.0
 11
47.40416792297523
 21
-0.1483756338694544
 31
0.0
  0
CIRCLE
  5
125
330
1F
100
AcDbEntity
  8
0
  6
CENTER
 62
     9
100
AcDbCircle
 10
-50.09583207702482
 20
-3.068375633869456
 30
0.0
 40
18.0
  0
LINE
  5
126
330
1F
100
AcDbEntity
  8
0
  6
CONTINUOUS
 62
     9
100
AcDbLine
 10
-1.095832077024717
 20
27.05934182652872
 30
0.0
 11
15.90416792297526
 21
27.05934182652872
 31
0.0
  0
INSERT
  5
127
330
1F
100
AcDbEntity
  8
0
 62
     9
100
AcDbBlockReference
  2
_OPEN30
 10
-1.095832077024717
 20
27.05934182652872
 30
0.0
 41
2.000001858549576
 42
1.999992849318975
 50
180.0
  0
INSERT
  5
128
330
1F
100
AcDbEntity
  8
0
 62
     9
100
AcDbBlockReference
  2
_OPEN30
 10
15.90416792297526
 20
27.05934182652872
 30
0.0
 41
2.000001858549576
 42
1.999992849318975
 50
360.0
  0
LINE
  5
129
330
1F
100
AcDbEntity
  8
0
  6
CONTINUOUS
 62
     9
100
AcDbLine
 10
-1.095832077024717
 20
32.05934182652872
 30
0.0
 11
18.90416792297518
 21
32.05934182652872
 31
0.0
  0
INSERT
  5
12A
330
1F
100
AcDbEntity
  8
0
 62
     9
100
AcDbBlockReference
  2
_OPEN30
 10
-1.095832077024717
 20
32.05934182652872
 30
0.0
 41
2.000001858549576
 42
1.999992849318975
 50
180.0
  0
INSERT
  5
12B
330
1F
100
AcDbEntity
  8
0
 62
     9
100
AcDbBlockReference
  2
_OPEN30
 10
18.90416792297518
 20
32.05934182652872
 30
0.0
 41
2.000001858549576
 42
1.999992849318975
 50
360.0
  0
LINE
  5
12C
330
1F
100
AcDbEntity
  8
0
  6
CONTINUOUS
 62
     9
100
AcDbLine
 10
18.90416792297518
 20
32.05934182652872
 30
0.0
 11
50.40416792297523
 21
32.05934182652872
 31
0.0
  0
INSERT
  5
12D
330
1F
100
AcDbEntity
  8
0
 62
     9
100
AcDbBlockReference
  2
_OPEN30
 10
18.90416792297518
 20
32.05934182652872
 30
0.0
 41
2.000001858549576
 42
1.999992849318975
 50
180.0
  0
INSERT
  5
12E
330
1F
100
AcDbEntity
  8
0
 62
     9
100
AcDbBlockReference
  2
_OPEN30
 10
50.40416792297523
 20
32.05934182652872
 30
0.0
 41
2.000001858549576
 42
1.999992849318975
 50
360.0
  0
LINE
  5
12F
330
1F
100
AcDbEntity
  8
0
  6
CONTINUOUS
 62
     9
100
AcDbLine
 10
23.7118548303913
 20
27.05934182652872
 30
0.0
 11
18.90416792297518
 21
27.05934182652872
 31
0.0
  0
INSERT
  5
130
330
1F
100
AcDbEntity
  8
0
 62
     9
100
AcDbBlockReference
  2
_OPEN30
 10
18.90416792297518
 20
27.05934182652872
 30
0.0
 41
2.000001858549576
 42
1.999992849318975
 50
180.0
  0
LINE
  5
131
330
1F
100
AcDbEntity
  8
0
  6
CONTINUOUS
 62
     9
100
AcDbLine
 10
59.12586948495594
 20
27.05934182652872
 30
0.0
 11
50.40416792297523
 21
27.05934182652872
 31
0.0
  0
INSERT
  5
132
330
1F
100
AcDbEntity
  8
0
 62
     9
100
AcDbBlockReference
  2
_OPEN30
 10
50.40416792297523
 20
27.05934182652872
 30
0.0
 41
2.000001858549576
 42
1.999992849318975
 50
180.0
  0
LINE
  5
133
330
1F
100
AcDbEntity
  8
0
  6
CONTINUOUS
 62
     9
100
AcDbLine
 10
45.8712201129883
 20
27.05934182652872
 30
0.0
 11
49.30416792297523
 21
27.05934182652872
 31
0.0
  0
INSERT
  5
134
330
1F
100
AcDbEntity
  8
0
 62
     9
100
AcDbBlockReference
  2
_OPEN30
 10
49.30416792297523
 20
27.05934182652872
 30
0.0
 41
2.000001858549576
 42
1.999992849318975
 50
360.0
  0
LINE
  5
135
330
1F
100
AcDbEntity
  8
0
  6
CONTINUOUS
 62
     9
100
AcDbLine
 10
52.13505556464283
 20
9.359013730801713
 30
0.0
 11
54.2271606193903
 21
21.35363217981643
 31
0.0
  0
INSERT
  5
136
330
1F
100
AcDbEntity
  8
0
 62
     9
100
AcDbBlockReference
  2
_OPEN30
 10
52.13505556464283
 20
9.359013730801713
 30
0.0
 41
2.000001858549576
 42
1.999992849318975
 50
260.1059845681431
  0
LINE
  5
137
330
1F
100
AcDbEntity
  8
0
  6
CONTINUOUS
 62
     9
100
AcDbLine
 10
-68.51265375051861
 20
-4.509298842269463
 30
0.0
 11
-76.09710638521595
 21
-30.72821815311499
 31
0.0
  0
INSERT
  5
138
330
1F
100
AcDbEntity
  8
0
 62
     9
100
AcDbBlockReference
  2
_OPEN30
 10
-68.51265375051861
 20
-4.509298842269463
 30
0.0
 41
2.000001858549576
 42
1.999992849318975
 50
73.86621630860829
  0
TEXT
  5
139
330
1F
100
AcDbEntity
  8
0
 62
     7
100
AcDbText
 10
4.731782843422067
 20
27.53143531051312
 30
0.0
 40
2.666666666666667
  1
17
 41
0.7999999999999998
  7
FDASTYLE0
 72
     5
 11
8.998449510088733
 21
27.53143531051312
 31
0.0
100
AcDbText
  0
TEXT
  5
13A
330
1F
100
AcDbEntity
  8
0
 62
     7
100
AcDbText
 10
20.91185483039131
 20
27.4301903236075
 30
0.0
 40
2.666666666666667
  1
3
 41
0.7999999999999998
  7
FDASTYLE0
 72
     5
 11
23.04518816372464
 21
27.4301903236075
 31
0.0
100
AcDbText
  0
TEXT
  5
13B
330
1F
100
AcDbEntity
  8
0
 62
     7
100
AcDbText
 10
6.211588809267468
 20
32.5350489074277
 30
0.0
 40
2.666666666666667
  1
20
 41
0.7999999999999998
  7
FDASTYLE0
 72
     5
 11
10.47825547593413
 21
32.5350489074277
 31
0.0
100
AcDbText
  0
TEXT
  5
13C
330
1F
100
AcDbEntity
  8
0
 62
     7
100
AcDbText
 10
30.63586864238595
 20
32.51554587797944
 30
0.0
 40
2.666666666666667
  1
31.5
 41
0.7999999999999998
  7
FDASTYLE0
 72
     5
 11
39.16920197571928
 21
32.51554587797944
 31
0.0
100
AcDbText
  0
TEXT
  5
13D
330
1F
100
AcDbEntity
  8
0
 62
     7
100
AcDbText
 10
52.05920281828927
 20
27.50395535436626
 30
0.0
 40
2.666666666666667
  1
1.1
 41
0.7999999999999998
  7
FDASTYLE0
 72
     5
 11
58.45920281828927
 21
27.50395535436626
 31
0.0
100
AcDbText
  0
TEXT
  5
13E
330
1F
100
AcDbEntity
  8
0
 62
     7
100
AcDbText
 10
-23.85434836537771
 20
-0.1350423005361225
 30
0.0
 40
2.666666666666667
  1
8
 50
90.0
 41
0.7999999999999998
  7
FDASTYLE0
 72
     5
 11
-23.85434836537771
 21
1.99829103279721
 31
0.0
100
AcDbText
  0
TEXT
  5
13F
330
1F
100
AcDbEntity
  8
0
 62
     7
100
AcDbText
 10
31.09354221792455
 20
-33.17751539020548
 30
0.0
 40
2.666666666666667
  1
（ＰＩＮＩＯＮ　ＰＯＳＩＴＩＯＮ）
 41
0.666666666666667
  7
FDASTYLE0
 72
     5
 11
67.36020888459123
 21
-33.17751539020548
 31
0.0
100
AcDbText
  0
TEXT
  5
140
330
1F
100
AcDbEntity
  8
0
 62
     7
100
AcDbText
 10
52.15305792297523
 20
-28.56837563386947
 30
0.0
 40
2.666666666666667
  1
7.4
 41
0.7999999999999998
  7
FDASTYLE0
 72
     5
 11
58.55305792297523
 21
-28.56837563386947
 31
0.0
100
AcDbText
  0
TEXT
  5
141
330
1F
100
AcDbEntity
  8
0
 62
     7
100
AcDbText
 10
59.21972458964189
 20
-26.83504230053613
 30
0.0
 40
1.733333333333333
  1
±0.4
 41
0.7619047619047629
  7
FDASTYLE0
 72
     5
 11
64.76639125630857
 21
-26.83504230053613
 31
0.0
100
AcDbText
  0
TEXT
  5
142
330
1F
100
AcDbEntity
  8
0
 62
     7
100
AcDbText
 10
-6.762498743691391
 20
11.93162436613057
 30
0.0
 40
2.666666666666667
  1
5.5
 50
90.0
 41
0.8
  7
FDASTYLE0
 72
     5
 11
-6.762498743691391
 21
18.33162436613057
 31
0.0
100
AcDbText
  0
TEXT
  5
143
330
1F
100
AcDbEntity
  8
0
 62
     7
100
AcDbText
 10
-8.495832077024724
 20
18.99829103279724
 30
0.0
 40
1.733333333333333
  1
±0.15
 50
90.0
 41
0.7692307692307693
  7
FDASTYLE0
 72
     5
 11
-8.495832077024724
 21
25.93162436613057
 31
0.0
100
AcDbText
  0
TEXT
  5
144
330
1F
100
AcDbEntity
  8
0
 62
     7
100
AcDbText
 10
-11.76249874369139
 20
11.93162436613057
 30
0.0
 40
2.666666666666667
  1
φ6
 50
90.0
 41
0.7272727272727275
  7
FDASTYLE0
 72
     5
 11
-11.76249874369139
 21
16.19829103279724
 31
0.0
100
AcDbText
  0
TEXT
  5
145
330
1F
100
AcDbEntity
  8
0
 62
     7
100
AcDbText
 10
-13.49583207702472
 20
16.86495769946391
 30
0.0
 40
1.733333333333333
  1
　0
 50
90.0
 41
0.7272727272727273
  7
FDASTYLE0
 72
     5
 11
-13.49583207702472
 21
19.63829103279724
 31
0.0
100
AcDbText
  0
TEXT
  5
146
330
1F
100
AcDbEntity
  8
0
 62
     7
100
AcDbText
 10
-11.62916541035806
 20
16.86495769946391
 30
0.0
 40
1.733333333333333
  1
-0.015
 50
90.0
 41
0.8
  7
FDASTYLE0
 72
     5
 11
-11.62916541035806
 21
25.18495769946391
 31
0.0
100
AcDbText
  0
TEXT
  5
147
330
1F
100
AcDbEntity
  8
0
 62
     7
100
AcDbText
 10
-16.89583207702473
 20
-2.135042300536093
 30
0.0
 40
2.666666666666667
  1
φ12
 50
90.0
 41
0.7499999999999999
  7
FDASTYLE0
 72
     5
 11
-16.89583207702473
 21
4.264957699463905
 31
0.0
100
AcDbText
  0
TEXT
  5
148
330
1F
100
AcDbEntity
  8
0
 62
     7
100
AcDbText
 10
-18.62916541035806
 20
4.931624366130572
 30
0.0
 40
1.733333333333333
  1
　0
 50
90.0
 41
0.7272727272727273
  7
FDASTYLE0
 72
     5
 11
-18.62916541035806
 21
7.704957699463906
 31
0.0
100
AcDbText
  0
TEXT
  5
149
330
1F
100
AcDbEntity
  8
0
 62
     7
100
AcDbText
 10
-16.76249874369139
 20
4.931624366130572
 30
0.0
 40
1.733333333333333
  1
-0.05
 50
90.0
 41
0.7999999999999999
  7
FDASTYLE0
 72
     5
 11
-16.76249874369139
 21
11.86495769946391
 31
0.0
100
AcDbText
  0
TEXT
  5
14A
330
1F
100
AcDbEntity
  8
0
 62
     7
100
AcDbText
 10
66.35775466788716
 20
-9.468375633869455
 30
0.0
 40
2.666666666666667
  1
φ42
 50
90.0
 41
0.7500000000000007
  7
FDASTYLE0
 72
     5
 11
66.35775466788716
 21
-3.068375633869449
 31
0.0
100
AcDbText
  0
TEXT
  5
14B
330
1F
100
AcDbEntity
  8
0
 62
     7
100
AcDbText
 10
64.62442133455384
 20
-2.401708967202782
 30
0.0
 40
1.733333333333333
  1
+0.2
 50
90.0
 41
0.8
  7
FDASTYLE0
 72
     5
 11
64.62442133455384
 21
3.144957699463885
 31
0.0
100
AcDbText
  0
TEXT
  5
14C
330
1F
100
AcDbEntity
  8
0
 62
     7
100
AcDbText
 10
66.4910880012205
 20
-2.401708967202783
 30
0.0
 40
1.733333333333333
  1
-1.0
 50
90.0
 41
0.8
  7
FDASTYLE0
 72
     5
 11
66.4910880012205
 21
3.144957699463884
 31
0.0
100
AcDbText
  0
TEXT
  5
14D
330
1F
100
AcDbEntity
  8
0
 62
     7
100
AcDbText
 10
60.14714894549283
 20
-9.221836235224245
 30
0.0
 40
2.666666666666667
  1
φ28
 50
90.0
 41
0.7500000000000007
  7
FDASTYLE0
 72
     5
 11
60.14714894549283
 21
-2.821836235224239
 31
0.0
100
AcDbText
  0
TEXT
  5
14E
330
1F
100
AcDbEntity
  8
0
 62
     7
100
AcDbText
 10
58.4138156121595
 20
-2.155169568557573
 30
0.0
 40
1.733333333333333
  1
+0.13
 50
90.0
 41
0.8000000000000004
  7
FDASTYLE0
 72
     5
 11
58.4138156121595
 21
4.778163764775765
 31
0.0
100
AcDbText
  0
TEXT
  5
14F
330
1F
100
AcDbEntity
  8
0
 62
     7
100
AcDbText
 10
60.28048227882616
 20
-2.155169568557573
 30
0.0
 40
1.733333333333333
  1
+0.07
 50
90.0
 41
0.7999999999999995
  7
FDASTYLE0
 72
     5
 11
60.28048227882616
 21
4.778163764775757
 31
0.0
100
AcDbText
  0
TEXT
  5
150
330
1F
100
AcDbEntity
  8
0
 62
     7
100
AcDbText
 10
54.57014077822134
 20
21.99380440217992
 30
0.0
 40
2.666666666666667
  1
4-M3(P=0.5)
 41
0.8
  7
FDASTYLE0
 72
     5
 11
78.03680744488801
 21
21.99380440217992
 31
0.0
100
AcDbText
  0
TEXT
  5
151
330
1F
100
AcDbEntity
  8
0
 62
     7
100
AcDbText
 10
-73.25595140416014
 20
-30.028218153115
 30
0.0
 40
2.666666666666667
  1
4-Ｍ3（Ｐ＝0.5）ＤＥＰＴＨ　4ＭＡＸ
 41
0.7058823529411765
  7
FDASTYLE0
 72
     5
 11
-28.45595140416015
 21
-30.028218153115
 31
0.0
100
AcDbText
  0
LINE
  5
152
330
1F
100
AcDbEntity
  8
0
  6
CONTINUOUS
 62
     9
100
AcDbLine
 10
-42.59583207702482
 20
4.931624366130544
 30
0.0
 11
-22.85434836537771
 21
4.931624366130544
 31
0.0
  0
LINE
  5
153
330
1F
100
AcDbEntity
  8
0
  6
CONTINUOUS
 62
     9
100
AcDbLine
 10
-26.62537634044859
 20
-3.068375633869456
 30
0.0
 11
-22.85434836537771
 21
-3.068375633869456
 31
0.0
  0
LINE
  5
154
330
1F
100
AcDbEntity
  8
0
  6
CONTINUOUS
 62
     9
100
AcDbLine
 10
50.20416792297522
 20
-17.56837563386947
 30
0.0
 11
50.20416792297522
 21
-29.56837563386947
 31
0.0
  0
LINE
  5
155
330
1F
100
AcDbEntity
  8
0
  6
CONTINUOUS
 62
     9
100
AcDbLine
 10
42.60416792297523
 20
-6.888375633869464
 30
0.0
 11
42.60416792297523
 21
-29.56837563386947
 31
0.0
  0
LINE
  5
156
330
1F
100
AcDbEntity
  8
0
  6
CONTINUOUS
 62
     9
100
AcDbLine
 10
42.60416792297523
 20
-29.06837563386947
 30
0.0
 11
50.20416792297522
 21
-29.06837563386947
 31
0.0
  0
LINE
  5
157
330
1F
100
AcDbEntity
  8
0
  6
CONTINUOUS
 62
     9
100
AcDbLine
 10
-1.595832077024717
 20
7.431624366130544
 30
0.0
 11
-6.595832077024724
 21
7.431624366130544
 31
0.0
  0
LINE
  5
158
330
1F
100
AcDbEntity
  8
0
  6
CONTINUOUS
 62
     9
100
AcDbLine
 10
-1.095832077024731
 20
1.931624366130544
 30
0.0
 11
-6.595832077024724
 21
1.931624366130544
 31
0.0
  0
LINE
  5
159
330
1F
100
AcDbEntity
  8
0
  6
CONTINUOUS
 62
     9
100
AcDbLine
 10
-6.095832077024724
 20
1.931624366130544
 30
0.0
 11
-6.095832077024724
 21
7.431624366130544
 31
0.0
  0
LINE
  5
15A
330
1F
100
AcDbEntity
  8
0
  6
CONTINUOUS
 62
     9
100
AcDbLine
 10
-1.095832077024731
 20
1.931624366130544
 30
0.0
 11
-11.59583207702472
 21
1.931624366130544
 31
0.0
  0
LINE
  5
15B
330
1F
100
AcDbEntity
  8
0
  6
CONTINUOUS
 62
     9
100
AcDbLine
 10
10.40416792297528
 20
7.931624366130544
 30
0.0
 11
-11.59583207702472
 21
7.931624366130544
 31
0.0
  0
LINE
  5
15C
330
1F
100
AcDbEntity
  8
0
  6
CONTINUOUS
 62
     9
100
AcDbLine
 10
-11.09583207702472
 20
1.931624366130544
 30
0.0
 11
-11.09583207702472
 21
7.931624366130544
 31
0.0
  0
LINE
  5
15D
330
1F
100
AcDbEntity
  8
0
  6
CONTINUOUS
 62
     9
100
AcDbLine
 10
15.90416792297527
 20
-1.068375633869428
 30
0.0
 11
-16.59583207702472
 21
-1.068375633869428
 31
0.0
  0
LINE
  5
15E
330
1F
100
AcDbEntity
  8
0
  6
CONTINUOUS
 62
     9
100
AcDbLine
 10
15.90416792297527
 20
10.93162436613057
 30
0.0
 11
-16.59583207702472
 21
10.93162436613057
 31
0.0
  0
LINE
  5
15F
330
1F
100
AcDbEntity
  8
0
  6
CONTINUOUS
 62
     9
100
AcDbLine
 10
51.06341193521323
 20
-24.06837563386945
 30
0.0
 11
67.69929121004859
 21
-24.06837563386945
 31
0.0
  0
LINE
  5
160
330
1F
100
AcDbEntity
  8
0
  6
CONTINUOUS
 62
     9
100
AcDbLine
 10
51.06341193521323
 20
17.93162436613054
 30
0.0
 11
67.69929121004859
 21
17.93162436613054
 31
0.0
  0
LINE
  5
161
330
1F
100
AcDbEntity
  8
0
  6
CONTINUOUS
 62
     9
100
AcDbLine
 10
50.70416792297522
 20
-17.06837557263908
 30
0.0
 11
61.08687423934273
 21
-17.06837557263908
 31
0.0
  0
LINE
  5
162
330
1F
100
AcDbEntity
  8
0
  6
CONTINUOUS
 62
     9
100
AcDbLine
 10
50.70416792297522
 20
10.93162430490018
 30
0.0
 11
61.08687423934273
 21
10.93162430490018
 31
0.0
  0
LINE
  5
163
330
1F
100
AcDbEntity
  8
0
  6
CONTINUOUS
 62
     9
100
AcDbLine
 10
-76.09710638521595
 20
-30.72821815311499
 30
0.0
 11
-28.63774355577634
 21
-30.72821815311499
 31
0.0
  0
LINE
  5
164
330
1F
100
AcDbEntity
  8
0
  6
CONTINUOUS
 62
     9
100
AcDbLine
 10
-23.35434836537771
 20
-3.068375633869456
 30
0.0
 11
-23.35434836537771
 21
4.931624366130544
 31
0.0
  0
INSERT
  5
165
330
1F
100
AcDbEntity
  8
0
 62
     9
100
AcDbBlockReference
  2
_OPEN30
 10
-23.35434836537771
 20
-3.068375633869456
 30
0.0
 41
2.000001858549576
 42
1.999992849318975
 50
270.0
  0
INSERT
  5
166
330
1F
100
AcDbEntity
  8
0
 62
     9
100
AcDbBlockReference
  2
_OPEN30
 10
-23.35434836537771
 20
4.931624366130544
 30
0.0
 41
2.000001858549576
 42
1.999992849318975
 50
90.0
  0
LINE
  5
167
330
1F
100
AcDbEntity
  8
0
  6
CONTINUOUS
 62
     9
100
AcDbLine
 10
-16.09583207702472
 20
-1.068375633869428
 30
0.0
 11
-16.09583207702472
 21
10.93162436613057
 31
0.0
  0
INSERT
  5
168
330
1F
100
AcDbEntity
  8
0
 62
     9
100
AcDbBlockReference
  2
_OPEN30
 10
-16.09583207702472
 20
-1.068375633869428
 30
0.0
 41
2.000001858549576
 42
1.999992849318975
 50
270.0
  0
INSERT
  5
169
330
1F
100
AcDbEntity
  8
0
 62
     9
100
AcDbBlockReference
  2
_OPEN30
 10
-16.09583207702472
 20
10.93162436613057
 30
0.0
 41
2.000001858549576
 42
1.999992849318975
 50
90.0
  0
LINE
  5
16A
330
1F
100
AcDbEntity
  8
0
  6
CONTINUOUS
 62
     9
100
AcDbLine
 10
66.85775466788716
 20
-24.06837563386945
 30
0.0
 11
66.85775466788716
 21
17.93162436613054
 31
0.0
  0
INSERT
  5
16B
330
1F
100
AcDbEntity
  8
0
 62
     9
100
AcDbBlockReference
  2
_OPEN30
 10
66.85775466788716
 20
-24.06837563386945
 30
0.0
 41
2.000001858549576
 42
1.999992849318975
 50
270.0
  0
INSERT
  5
16C
330
1F
100
AcDbEntity
  8
0
 62
     9
100
AcDbBlockReference
  2
_OPEN30
 10
66.85775466788716
 20
17.93162436613054
 30
0.0
 41
2.000001858549576
 42
1.999992849318975
 50
90.0
  0
LINE
  5
16D
330
1F
100
AcDbEntity
  8
0
  6
CONTINUOUS
 62
     9
100
AcDbLine
 10
60.58687423934273
 20
-17.06837557263908
 30
0.0
 11
60.58687423934273
 21
10.93162430490018
 31
0.0
  0
INSERT
  5
16E
330
1F
100
AcDbEntity
  8
0
 62
     9
100
AcDbBlockReference
  2
_OPEN30
 10
60.58687423934273
 20
-17.06837557263908
 30
0.0
 41
2.000001858549576
 42
1.999992849318975
 50
270.0
  0
INSERT
  5
16F
330
1F
100
AcDbEntity
  8
0
 62
     9
100
AcDbBlockReference
  2
_OPEN30
 10
60.58687423934273
 20
10.93162430490018
 30
0.0
 41
2.000001858549576
 42
1.999992849318975
 50
90.0
  0
LINE
  5
170
330
1F
100
AcDbEntity
  8
0
  6
CONTINUOUS
 62
     9
100
AcDbLine
 10
65.43305792297524
 20
-29.06837563386947
 30
0.0
 11
50.20416792297522
 21
-29.06837563386947
 31
0.0
  0
INSERT
  5
171
330
1F
100
AcDbEntity
  8
0
 62
     9
100
AcDbBlockReference
  2
_OPEN30
 10
50.20416792297522
 20
-29.06837563386947
 30
0.0
 41
2.000001858549576
 42
1.999992849318975
 50
180.0
  0
LINE
  5
172
330
1F
100
AcDbEntity
  8
0
  6
CONTINUOUS
 62
     9
100
AcDbLine
 10
39.01540035858054
 20
-29.06837563386947
 30
0.0
 11
42.60416792297523
 21
-29.06837563386947
 31
0.0
  0
INSERT
  5
173
330
1F
100
AcDbEntity
  8
0
 62
     9
100
AcDbBlockReference
  2
_OPEN30
 10
42.60416792297523
 20
-29.06837563386947
 30
0.0
 41
2.000001858549576
 42
1.999992849318975
 50
360.0
  0
LINE
  5
174
330
1F
100
AcDbEntity
  8
0
  6
CONTINUOUS
 62
     9
100
AcDbLine
 10
-11.09583207702472
 20
25.85162436613057
 30
0.0
 11
-11.09583207702472
 21
7.931624366130544
 31
0.0
  0
INSERT
  5
175
330
1F
100
AcDbEntity
  8
0
 62
     9
100
AcDbBlockReference
  2
_OPEN30
 10
-11.09583207702472
 20
7.931624366130544
 30
0.0
 41
2.000001858549576
 42
1.999992849318975
 50
270.0
  0
LINE
  5
176
330
1F
100
AcDbEntity
  8
0
  6
CONTINUOUS
 62
     9
100
AcDbLine
 10
-11.09583207702472
 20
-1.40170896720279
 30
0.0
 11
-11.09583207702472
 21
1.931624366130544
 31
0.0
  0
INSERT
  5
177
330
1F
100
AcDbEntity
  8
0
 62
     9
100
AcDbBlockReference
  2
_OPEN30
 10
-11.09583207702472
 20
1.931624366130544
 30
0.0
 41
2.000001858549576
 42
1.999992849318975
 50
90.0
  0
LINE
  5
178
330
1F
100
AcDbEntity
  8
0
  6
CONTINUOUS
 62
     9
100
AcDbLine
 10
-6.095832077024723
 20
26.59829103279724
 30
0.0
 11
-6.095832077024724
 21
7.431624366130544
 31
0.0
  0
INSERT
  5
179
330
1F
100
AcDbEntity
  8
0
 62
     9
100
AcDbBlockReference
  2
_OPEN30
 10
-6.095832077024724
 20
7.431624366130544
 30
0.0
 41
2.000001858549576
 42
1.999992849318975
 50
270.0
  0
LINE
  5
17A
330
1F
100
AcDbEntity
  8
0
  6
CONTINUOUS
 62
     9
100
AcDbLine
 10
-6.095832077024725
 20
-1.40170896720279
 30
0.0
 11
-6.095832077024724
 21
1.931624366130544
 31
0.0
  0
INSERT
  5
17B
330
1F
100
AcDbEntity
  8
0
 62
     9
100
AcDbBlockReference
  2
_OPEN30
 10
-6.095832077024724
 20
1.931624366130544
 30
0.0
 41
2.000001858549576
 42
1.999992849318975
 50
89.99999999999999
  0
LINE
  5
17C
330
1F
100
AcDbEntity
  8
LAYER0016
  6
CENTER
 62
     9
100
AcDbLine
 10
47.45520337848055
 20
7.859013730801713
 30
0.0
 11
55.11035348998553
 21
7.859013730801713
 31
0.0
  0
LINE
  5
17D
330
1F
100
AcDbEntity
  8
LAYER0016
  6
CENTER
 62
     9
100
AcDbLine
 10
47.45520337848055
 20
-16.99396038678233
 30
0.0
 11
55.11035348998553
 21
-16.99396038678233
 31
0.0
  0
LINE
  5
17E
330
1F
100
AcDbEntity
  8
LAYER0016
  6
CONTINUOUS
 62
     9
100
AcDbLine
 10
50.40416792297523
 20
9.109013730801713
 30
0.0
 11
53.65416792297522
 21
9.109013730801713
 31
0.0
  0
LINE
  5
17F
330
1F
100
AcDbEntity
  8
LAYER0016
  6
CONTINUOUS
 62
     9
100
AcDbLine
 10
50.40416792297523
 20
6.609013730801713
 30
0.0
 11
53.65416792297522
 21
6.609013730801713
 31
0.0
  0
LINE
  5
180
330
1F
100
AcDbEntity
  8
LAYER0016
  6
CONTINUOUS
 62
     9
100
AcDbLine
 10
50.40416792297523
 20
-15.74396038678233
 30
0.0
 11
53.65416792297522
 21
-15.74396038678233
 31
0.0
  0
LINE
  5
181
330
1F
100
AcDbEntity
  8
LAYER0016
  6
CONTINUOUS
 62
     9
100
AcDbLine
 10
50.40416792297523
 20
-18.24396038678233
 30
0.0
 11
53.65416792297522
 21
-18.24396038678233
 31
0.0
  0
INSERT
  5
182
330
1F
100
AcDbEntity
  8
0
  6
CONTINUOUS
100
AcDbBlockReference
  2
DA_IMAGEDIMGROUP_1
 10
0.0
 20
0.0
 30
0.0
  0
INSERT
  5
183
330
1F
100
AcDbEntity
  8
0
  6
CONTINUOUS
100
AcDbBlockReference
  2
DA_IMAGEDIMGROUP_2
 10
0.0
 20
0.0
 30
0.0
  0
INSERT
  5
184
330
1F
100
AcDbEntity
  8
0
  6
CONTINUOUS
100
AcDbBlockReference
  2
DA_IMAGEDIMGROUP_3
 10
0.0
 20
0.0
 30
0.0
  0
VIEWPORT
  5
48
330
1B
100
AcDbEntity
 67
     1
  8
0
100
AcDbViewport
 10
-258.9690888388583
 20
-192.8991422129528
 30
0.0
 40
2016.18546696685
 41
1368.605146722283
 68
     1
 69
     1
1001
ACAD
1000
MVIEW
1002
{
1070
    16
1010
0.0
1020
0.0
1030
0.0
1010
0.0
1020
0.0
1030
1.0
1040
0.0
1040
1368.605146722283
1040
-258.9690888388583
1040
-192.8991422129528
1040
50.0
1040
0.0
1040
0.0
1070
     0
1070
   100
1070
     0
1070
     1
1070
     0
1070
     0
1070
     0
1070
     0
1040
0.0
1040
0.0
1040
0.0
1040
0.5
1040
0.5
1040
0.0
1040
0.0
1070
     0
1002
{
1002
}
1002
}
  0
ENDSEC
  0
SECTION
  2
OBJECTS
  0
DICTIONARY
  5
C
330
0
100
AcDbDictionary
  3
ACAD_GROUP
350
D
  3
ACAD_LAYOUT
350
1A
  3
ACAD_MLINESTYLE
350
17
  3
ACAD_PLOTSETTINGS
350
19
  3
ACDBHEADERROUNDTRIPXREC
350
185
  0
DICTIONARY
  5
D
102
{ACAD_REACTORS
330
C
102
}
330
C
100
AcDbDictionary
  0
DICTIONARY
  5
1A
102
{ACAD_REACTORS
330
C
102
}
330
C
100
AcDbDictionary
  0
DICTIONARY
  5
17
102
{ACAD_REACTORS
330
C
102
}
330
C
100
AcDbDictionary
  3
STANDARD
350
18
  0
DICTIONARY
  5
19
102
{ACAD_REACTORS
330
C
102
}
330
C
100
AcDbDictionary
  0
DICTIONARY
  5
185
102
{ACAD_REACTORS
330
C
102
}
330
C
100
AcDbDictionary
  3
CEPSNTYPE
350
18E
  3
DIMSTYLEDATA
350
1A4
  3
FINGERPRINTGUID
350
18F
  3
HYPERLINKBASE
350
188
  3
INSUNITS
350
18D
  3
LAYOUTDICT
350
18A
  3
LWETCUNION
350
18C
  3
PLOTSETDICT
350
18B
  3
PSVPSCALE
350
191
  3
PUCSBASE
350
194
  3
PUCSORGBACK
350
19A
  3
PUCSORGBOTTOM
350
196
  3
PUCSORGFRONT
350
199
  3
PUCSORGLEFT
350
197
  3
PUCSORGRIGHT
350
198
  3
PUCSORGTOP
350
195
  3
PUCSORTHOREF
350
192
  3
PUCSORTHOVIEW
350
193
  3
STYLESHEET
350
189
  3
TSTACKALIGN
350
186
  3
TSTACKSIZE
350
187
  3
UCSBASE
350
19D
  3
UCSORGBACK
350
1A3
  3
UCSORGBOTTOM
350
19F
  3
UCSORGFRONT
350
1A2
  3
UCSORGLEFT
350
1A0
  3
UCSORGRIGHT
350
1A1
  3
UCSORGTOP
350
19E
  3
UCSORTHOREF
350
19B
  3
UCSORTHOVIEW
350
19C
  3
VERSIONGUID
350
190
  0
MLINESTYLE
  5
18
102
{ACAD_REACTORS
330
17
102
}
330
17
100
AcDbMlineStyle
  2
Standard
 70
     0
  3

 62
   256
 51
90.0
 52
90.0
 71
     2
 49
0.5
 62
   256
  6
BYLAYER
 49
-0.5
 62
   256
  6
BYLAYER
  0
XRECORD
  5
18E
102
{ACAD_REACTORS
330
185
102
}
330
185
100
AcDbXrecord
 90
        0
  0
XRECORD
  5
1A4
102
{ACAD_REACTORS
330
185
102
}
330
185
100
AcDbXrecord
1000
DSTYLE
1002
{
1070
   171
 70
     2
1070
   143
 40
25.4
1070
   274
 70
     2
1070
    41
 40
1.666666666666667
1070
   141
 40
0.09
1070
   271
 70
     4
1070
    43
 40
0.38
1070
    44
 40
0.18
1070
   278
 70
    46
1070
    42
 40
0.0625
1070
   147
 40
0.09
1070
    77
 70
     3
1070
   272
 70
     4
1070
    73
 70
     1
1070
   172
 70
     0
1070
    74
 70
     1
1070
   283
 70
     1
1070
   340
340
11
1070
   140
 40
0.18
1070
   284
 70
     0
1070
    78
 70
     0
1002
}
  0
XRECORD
  5
18F
102
{ACAD_REACTORS
330
185
102
}
330
185
100
AcDbXrecord
  1
{CCF42860-E869-412E-80A7-D9DFA4E4E70E}
  0
XRECORD
  5
188
102
{ACAD_REACTORS
330
185
102
}
330
185
100
AcDbXrecord
  1

  0
XRECORD
  5
18D
102
{ACAD_REACTORS
330
185
102
}
330
185
100
AcDbXrecord
 90
        4
  0
XRECORD
  5
18A
102
{ACAD_REACTORS
330
185
102
}
330
185
100
AcDbXrecord
340
1A
  0
XRECORD
  5
18C
102
{ACAD_REACTORS
330
185
102
}
330
185
100
AcDbXrecord
 90
    10781
  0
XRECORD
  5
18B
102
{ACAD_REACTORS
330
185
102
}
330
185
100
AcDbXrecord
340
19
  0
XRECORD
  5
191
102
{ACAD_REACTORS
330
185
102
}
330
185
100
AcDbXrecord
 40
0.0
  0
XRECORD
  5
194
102
{ACAD_REACTORS
330
185
102
}
330
185
100
AcDbXrecord
340
0
  0
XRECORD
  5
19A
102
{ACAD_REACTORS
330
185
102
}
330
185
100
AcDbXrecord
 10
0.0
 20
0.0
 30
0.0
  0
XRECORD
  5
196
102
{ACAD_REACTORS
330
185
102
}
330
185
100
AcDbXrecord
 10
0.0
 20
0.0
 30
0.0
  0
XRECORD
  5
199
102
{ACAD_REACTORS
330
185
102
}
330
185
100
AcDbXrecord
 10
0.0
 20
0.0
 30
0.0
  0
XRECORD
  5
197
102
{ACAD_REACTORS
330
185
102
}
330
185
100
AcDbXrecord
 10
0.0
 20
0.0
 30
0.0
  0
XRECORD
  5
198
102
{ACAD_REACTORS
330
185
102
}
330
185
100
AcDbXrecord
 10
0.0
 20
0.0
 30
0.0
  0
XRECORD
  5
195
102
{ACAD_REACTORS
330
185
102
}
330
185
100
AcDbXrecord
 10
0.0
 20
0.0
 30
0.0
  0
XRECORD
  5
192
102
{ACAD_REACTORS
330
185
102
}
330
185
100
AcDbXrecord
340
0
  0
XRECORD
  5
193
102
{ACAD_REACTORS
330
185
102
}
330
185
100
AcDbXrecord
 70
     0
  0
XRECORD
  5
189
102
{ACAD_REACTORS
330
185
102
}
330
185
100
AcDbXrecord
  1

  0
XRECORD
  5
186
102
{ACAD_REACTORS
330
185
102
}
330
185
100
AcDbXrecord
 90
        1
  0
XRECORD
  5
187
102
{ACAD_REACTORS
330
185
102
}
330
185
100
AcDbXrecord
 90
       70
  0
XRECORD
  5
19D
102
{ACAD_REACTORS
330
185
102
}
330
185
100
AcDbXrecord
340
0
  0
XRECORD
  5
1A3
102
{ACAD_REACTORS
330
185
102
}
330
185
100
AcDbXrecord
 10
0.0
 20
0.0
 30
0.0
  0
XRECORD
  5
19F
102
{ACAD_REACTORS
330
185
102
}
330
185
100
AcDbXrecord
 10
0.0
 20
0.0
 30
0.0
  0
XRECORD
  5
1A2
102
{ACAD_REACTORS
330
185
102
}
330
185
100
AcDbXrecord
 10
0.0
 20
0.0
 30
0.0
  0
XRECORD
  5
1A0
102
{ACAD_REACTORS
330
185
102
}
330
185
100
AcDbXrecord
 10
0.0
 20
0.0
 30
0.0
  0
XRECORD
  5
1A1
102
{ACAD_REACTORS
330
185
102
}
330
185
100
AcDbXrecord
 10
0.0
 20
0.0
 30
0.0
  0
XRECORD
  5
19E
102
{ACAD_REACTORS
330
185
102
}
330
185
100
AcDbXrecord
 10
0.0
 20
0.0
 30
0.0
  0
XRECORD
  5
19B
102
{ACAD_REACTORS
330
185
102
}
330
185
100
AcDbXrecord
340
0
  0
XRECORD
  5
19C
102
{ACAD_REACTORS
330
185
102
}
330
185
100
AcDbXrecord
 70
     0
  0
XRECORD
  5
190
102
{ACAD_REACTORS
330
185
102
}
330
185
100
AcDbXrecord
  1
{FAEB1C32-E019-11D5-929B-00C0DF256EC4}
  0
ENDSEC
  0
EOF
