  0
SECTION
  2
HEADER
  9
$ACADVER
  1
AC1014
  9
$ACADMAINTVER
 70
     9
  9
$DWGCODEPAGE
  3
ANSI_932
  9
$INSBASE
 10
0.0
 20
0.0
 30
0.0
  9
$EXTMIN
 10
-287.9500014305113
 20
-88.04266906122685
 30
0.0
  9
$EXTMAX
 10
284.7500014305113
 20
90.04266932944776
 30
0.0
  9
$LIMMIN
 10
-148.5
 20
-105.0
  9
$LIMMAX
 10
148.5
 20
105.0
  9
$ORTHOMODE
 70
     0
  9
$REGENMODE
 70
     1
  9
$FILLMODE
 70
     1
  9
$QTEXTMODE
 70
     0
  9
$MIRRTEXT
 70
     1
  9
$DRAGMODE
 70
     2
  9
$LTSCALE
 40
1.0
  9
$OSMODE
 70
    37
  9
$ATTMODE
 70
     1
  9
$TEXTSIZE
 40
0.2
  9
$TRACEWID
 40
0.05
  9
$TEXTSTYLE
  7
STANDARD
  9
$CLAYER
  8
0
  9
$CELTYPE
  6
BYLAYER
  9
$CECOLOR
 62
   256
  9
$CELTSCALE
 40
1.0
  9
$DELOBJ
 70
     1
  9
$DISPSILH
 70
     0
  9
$DIMSCALE
 40
1.0
  9
$DIMASZ
 40
2.5
  9
$DIMEXO
 40
0.0625
  9
$DIMDLI
 40
0.38
  9
$DIMRND
 40
0.0
  9
$DIMDLE
 40
0.0
  9
$DIMEXE
 40
0.18
  9
$DIMTP
 40
0.0
  9
$DIMTM
 40
0.0
  9
$DIMTXT
 40
0.18
  9
$DIMCEN
 40
0.09
  9
$DIMTSZ
 40
0.0
  9
$DIMTOL
 70
     0
  9
$DIMLIM
 70
     0
  9
$DIMTIH
 70
     1
  9
$DIMTOH
 70
     1
  9
$DIMSE1
 70
     0
  9
$DIMSE2
 70
     0
  9
$DIMTAD
 70
     3
  9
$DIMZIN
 70
     0
  9
$DIMBLK
  1

  9
$DIMASO
 70
     1
  9
$DIMSHO
 70
     1
  9
$DIMPOST
  1

  9
$DIMAPOST
  1

  9
$DIMALT
 70
     0
  9
$DIMALTD
 70
     2
  9
$DIMALTF
 40
25.4
  9
$DIMLFAC
 40
1.0
  9
$DIMTOFL
 70
     0
  9
$DIMTVP
 40
0.0
  9
$DIMTIX
 70
     0
  9
$DIMSOXD
 70
     0
  9
$DIMSAH
 70
     0
  9
$DIMBLK1
  1

  9
$DIMBLK2
  1

  9
$DIMSTYLE
  2
STANDARD
  9
$DIMCLRD
 70
     0
  9
$DIMCLRE
 70
     0
  9
$DIMCLRT
 70
     0
  9
$DIMTFAC
 40
1.0
  9
$DIMGAP
 40
0.09
  9
$DIMJUST
 70
     0
  9
$DIMSD1
 70
     0
  9
$DIMSD2
 70
     0
  9
$DIMTOLJ
 70
     1
  9
$DIMTZIN
 70
     0
  9
$DIMALTZ
 70
     0
  9
$DIMALTTZ
 70
     0
  9
$DIMFIT
 70
     3
  9
$DIMUPT
 70
     0
  9
$DIMUNIT
 70
     2
  9
$DIMDEC
 70
     4
  9
$DIMTDEC
 70
     4
  9
$DIMALTU
 70
     2
  9
$DIMALTTD
 70
     2
  9
$DIMTXSTY
  7
STANDARD
  9
$DIMAUNIT
 70
     0
  9
$LUNITS
 70
     2
  9
$LUPREC
 70
     4
  9
$SKETCHINC
 40
0.1
  9
$FILLETRAD
 40
0.5
  9
$AUNITS
 70
     0
  9
$AUPREC
 70
     0
  9
$MENU
  1
.
  9
$ELEVATION
 40
0.0
  9
$PELEVATION
 40
0.0
  9
$THICKNESS
 40
0.0
  9
$LIMCHECK
 70
     0
  9
$CHAMFERA
 40
0.5
  9
$CHAMFERB
 40
0.5
  9
$CHAMFERC
 40
1.0
  9
$CHAMFERD
 40
0.0
  9
$SKPOLY
 70
     0
  9
$TDCREATE
 40
2456434.792250625
  9
$TDUPDATE
 40
2456434.792250637
  9
$TDINDWG
 40
0.0000000116
  9
$TDUSRTIMER
 40
0.0000000116
  9
$USRTIMER
 70
     1
  9
$ANGBASE
 50
0.0
  9
$ANGDIR
 70
     0
  9
$PDMODE
 70
     0
  9
$PDSIZE
 40
1.0
  9
$PLINEWID
 40
0.0
  9
$COORDS
 70
     1
  9
$SPLFRAME
 70
     0
  9
$SPLINETYPE
 70
     6
  9
$SPLINESEGS
 70
     8
  9
$ATTDIA
 70
     0
  9
$ATTREQ
 70
     1
  9
$HANDLING
 70
     1
  9
$HANDSEED
  5
167
  9
$SURFTAB1
 70
     6
  9
$SURFTAB2
 70
     6
  9
$SURFTYPE
 70
     6
  9
$SURFU
 70
     6
  9
$SURFV
 70
     6
  9
$UCSNAME
  2

  9
$UCSORG
 10
0.0
 20
0.0
 30
0.0
  9
$UCSXDIR
 10
1.0
 20
0.0
 30
0.0
  9
$UCSYDIR
 10
0.0
 20
1.0
 30
0.0
  9
$PUCSNAME
  2

  9
$PUCSORG
 10
0.0
 20
0.0
 30
0.0
  9
$PUCSXDIR
 10
1.0
 20
0.0
 30
0.0
  9
$PUCSYDIR
 10
0.0
 20
1.0
 30
0.0
  9
$USERI1
 70
     0
  9
$USERI2
 70
     0
  9
$USERI3
 70
     0
  9
$USERI4
 70
     0
  9
$USERI5
 70
     0
  9
$USERR1
 40
0.0
  9
$USERR2
 40
0.0
  9
$USERR3
 40
0.0
  9
$USERR4
 40
0.0
  9
$USERR5
 40
0.0
  9
$WORLDVIEW
 70
     1
  9
$SHADEDGE
 70
     3
  9
$SHADEDIF
 70
    70
  9
$TILEMODE
 70
     1
  9
$MAXACTVP
 70
    64
  9
$PINSBASE
 10
0.0
 20
0.0
 30
0.0
  9
$PLIMCHECK
 70
     0
  9
$PEXTMIN
 10
1.000000000000000E+20
 20
1.000000000000000E+20
 30
1.000000000000000E+20
  9
$PEXTMAX
 10
-1.000000000000000E+20
 20
-1.000000000000000E+20
 30
-1.000000000000000E+20
  9
$PLIMMIN
 10
0.0
 20
0.0
  9
$PLIMMAX
 10
12.0
 20
9.0
  9
$UNITMODE
 70
     0
  9
$VISRETAIN
 70
     0
  9
$PLINEGEN
 70
     1
  9
$PSLTSCALE
 70
     0
  9
$TREEDEPTH
 70
  3020
  9
$PICKSTYLE
 70
     1
  9
$CMLSTYLE
  2
STANDARD
  9
$CMLJUST
 70
     0
  9
$CMLSCALE
 40
1.0
  9
$PROXYGRAPHICS
 70
     0
  9
$MEASUREMENT
 70
     1
  0
ENDSEC
  0
SECTION
  2
CLASSES
  0
CLASS
  1
ACDBDICTIONARYWDFLT
  2
AcDbDictionaryWithDefault
  3
ObjectDBX Classes
 90
        0
280
     0
281
     0
  0
CLASS
  1
XRECORD
  2
AcDbXrecord
  3
AutoCAD 2000
 90
        0
280
     0
281
     0
  0
CLASS
  1
LWPOLYLINE
  2
AcDbPolyline
  3
AutoCAD 2000
 90
        0
280
     0
281
     1
  0
CLASS
  1
HATCH
  2
AcDbHatch
  3
AutoCAD 2000
 90
        0
280
     0
281
     1
  0
CLASS
  1
ACDBPLACEHOLDER
  2
AcDbPlaceHolder
  3
ObjectDBX Classes
 90
        0
280
     0
281
     0
  0
CLASS
  1
LAYOUT
  2
AcDbLayout
  3
ObjectDBX Classes
 90
        0
280
     0
281
     0
  0
ENDSEC
  0
SECTION
  2
TABLES
  0
TABLE
  2
VPORT
  5
8
330
0
100
AcDbSymbolTable
 70
     1
  0
VPORT
  5
29
330
8
100
AcDbSymbolTableRecord
100
AcDbViewportTableRecord
  2
*ACTIVE
 70
     0
 10
0.0
 20
0.0
 11
1.0
 21
1.0
 12
0.0
 22
0.0
 13
0.0
 23
0.0
 14
0.5
 24
0.5
 15
0.5
 25
0.5
 16
0.0
 26
0.0
 36
1.0
 17
-1.600000000000012
 27
0.0
 37
0.0
 40
62.58901532641469
 41
3.111057107341487
 42
50.0
 43
0.0
 44
0.0
 50
0.0
 51
0.0
 71
     0
 72
  1000
 73
     1
 74
     1
 75
     0
 76
     0
 77
     0
 78
     0
  0
ENDTAB
  0
TABLE
  2
LTYPE
  5
5
330
0
100
AcDbSymbolTable
 70
    28
  0
LTYPE
  5
14
330
5
100
AcDbSymbolTableRecord
100
AcDbLinetypeTableRecord
  2
BYBLOCK
 70
     0
  3

 72
    65
 73
     0
 40
0.0
  0
LTYPE
  5
15
330
5
100
AcDbSymbolTableRecord
100
AcDbLinetypeTableRecord
  2
BYLAYER
 70
     0
  3

 72
    65
 73
     0
 40
0.0
  0
LTYPE
  5
16
330
5
100
AcDbSymbolTableRecord
100
AcDbLinetypeTableRecord
  2
CONTINUOUS
 70
     0
  3
Solid line
 72
    65
 73
     0
 40
0.0
  0
LTYPE
  5
2B
330
5
100
AcDbSymbolTableRecord
100
AcDbLinetypeTableRecord
  2
HIDDENX2
 70
     0
  3
CADPAC LINETYPE
 72
    65
 73
     2
 40
4.57516339869278
 49
3.431372549019585
 74
     0
 49
-1.143790849673195
 74
     0
  0
LTYPE
  5
2C
330
5
100
AcDbSymbolTableRecord
100
AcDbLinetypeTableRecord
  2
HIDDEN
 70
     0
  3
CADPAC LINETYPE
 72
    65
 73
     2
 40
3.431372549019585
 49
2.28758169934639
 74
     0
 49
-1.143790849673195
 74
     0
  0
LTYPE
  5
2D
330
5
100
AcDbSymbolTableRecord
100
AcDbLinetypeTableRecord
  2
HIDDEN2
 70
     0
  3
CADPAC LINETYPE
 72
    65
 73
     2
 40
2.859477124182988
 49
1.715686274509793
 74
     0
 49
-1.143790849673195
 74
     0
  0
LTYPE
  5
2E
330
5
100
AcDbSymbolTableRecord
100
AcDbLinetypeTableRecord
  2
DASHED
 70
     0
  3
CADPAC LINETYPE
 72
    65
 73
     2
 40
3.202614379084935
 49
2.28758169934639
 74
     0
 49
-0.9150326797385446
 74
     0
  0
LTYPE
  5
2F
330
5
100
AcDbSymbolTableRecord
100
AcDbLinetypeTableRecord
  2
DASHED2
 70
     0
  3
CADPAC LINETYPE
 72
    65
 73
     2
 40
2.058823529411711
 49
1.372549019607817
 74
     0
 49
-0.6862745098038943
 74
     0
  0
LTYPE
  5
30
330
5
100
AcDbSymbolTableRecord
100
AcDbLinetypeTableRecord
  2
DASHEDX2
 70
     0
  3
CADPAC LINETYPE
 72
    65
 73
     2
 40
5.490196078431325
 49
4.57516339869278
 74
     0
 49
-0.9150326797385446
 74
     0
  0
LTYPE
  5
31
330
5
100
AcDbSymbolTableRecord
100
AcDbLinetypeTableRecord
  2
DOTX2
 70
     0
  3
CADPAC LINETYPE
 72
    65
 73
     2
 40
2.001633986928084
 49
0.0
 74
     0
 49
-2.001633986928084
 74
     0
  0
LTYPE
  5
32
330
5
100
AcDbSymbolTableRecord
100
AcDbLinetypeTableRecord
  2
DOT
 70
     0
  3
CADPAC LINETYPE
 72
    65
 73
     2
 40
1.601307189542467
 49
0.0
 74
     0
 49
-1.601307189542467
 74
     0
  0
LTYPE
  5
33
330
5
100
AcDbSymbolTableRecord
100
AcDbLinetypeTableRecord
  2
DOT2
 70
     0
  3
CADPAC LINETYPE
 72
    65
 73
     2
 40
1.200980392156851
 49
0.0
 74
     0
 49
-1.200980392156851
 74
     0
  0
LTYPE
  5
34
330
5
100
AcDbSymbolTableRecord
100
AcDbLinetypeTableRecord
  2
CENTERX2
 70
     0
  3
CADPAC LINETYPE
 72
    65
 73
     4
 40
6.86274509803917
 49
2.859477124182988
 74
     0
 49
-1.429738562091494
 74
     0
 49
1.143790849673195
 74
     0
 49
-1.429738562091494
 74
     0
  0
LTYPE
  5
35
330
5
100
AcDbSymbolTableRecord
100
AcDbLinetypeTableRecord
  2
CENTER
 70
     0
  3
CADPAC LINETYPE
 72
    65
 73
     4
 40
5.261437908496697
 49
2.28758169934639
 74
     0
 49
-1.143790849673195
 74
     0
 49
0.686274509803917
 74
     0
 49
-1.143790849673195
 74
     0
  0
LTYPE
  5
36
330
5
100
AcDbSymbolTableRecord
100
AcDbLinetypeTableRecord
  2
CENTER2
 70
     0
  3
CADPAC LINETYPE
 72
    65
 73
     4
 40
3.660130718954224
 49
1.715686274509793
 74
     0
 49
-0.8578431372548963
 74
     0
 49
0.228758169934639
 74
     0
 49
-0.8578431372548963
 74
     0
  0
LTYPE
  5
37
330
5
100
AcDbSymbolTableRecord
100
AcDbLinetypeTableRecord
  2
DASHDOTX2
 70
     0
  3
CADPAC LINETYPE
 72
    65
 73
     4
 40
10.98039215686262
 49
5.490196078431353
 74
     0
 49
-1.830065359477089
 74
     0
 49
1.830065359477089
 74
     0
 49
-1.830065359477089
 74
     0
  0
LTYPE
  5
38
330
5
100
AcDbSymbolTableRecord
100
AcDbLinetypeTableRecord
  2
DASHDOT
 70
     0
  3
CADPAC LINETYPE
 72
    65
 73
     4
 40
5.490196078431296
 49
2.745098039215662
 74
     0
 49
-0.9150326797385446
 74
     0
 49
0.9150326797385446
 74
     0
 49
-0.9150326797385446
 74
     0
  0
LTYPE
  5
39
330
5
100
AcDbSymbolTableRecord
100
AcDbLinetypeTableRecord
  2
DASHDOT2
 70
     0
  3
CADPAC LINETYPE
 72
    65
 73
     4
 40
3.522875816993418
 49
2.058823529411747
 74
     0
 49
-0.6862745098039085
 74
     0
 49
0.0915032679738545
 74
     0
 49
-0.6862745098039085
 74
     0
  0
LTYPE
  5
3A
330
5
100
AcDbSymbolTableRecord
100
AcDbLinetypeTableRecord
  2
DIVIDEX2
 70
     0
  3
CADPAC LINETYPE
 72
    65
 73
     6
 40
14.6405228758168
 49
5.490196078431353
 74
     0
 49
-1.830065359477089
 74
     0
 49
1.830065359477089
 74
     0
 49
-1.830065359477089
 74
     0
 49
1.830065359477089
 74
     0
 49
-1.830065359477089
 74
     0
  0
LTYPE
  5
3B
330
5
100
AcDbSymbolTableRecord
100
AcDbLinetypeTableRecord
  2
DIVIDE
 70
     0
  3
CADPAC LINETYPE
 72
    65
 73
     6
 40
7.320261437908386
 49
2.745098039215662
 74
     0
 49
-0.9150326797385446
 74
     0
 49
0.9150326797385446
 74
     0
 49
-0.9150326797385446
 74
     0
 49
0.9150326797385446
 74
     0
 49
-0.9150326797385446
 74
     0
  0
LTYPE
  5
3C
330
5
100
AcDbSymbolTableRecord
100
AcDbLinetypeTableRecord
  2
DIVIDE2
 70
     0
  3
CADPAC LINETYPE
 72
    65
 73
     6
 40
5.490196078431289
 49
2.058823529411747
 74
     0
 49
-0.6862745098039085
 74
     0
 49
0.6862745098039085
 74
     0
 49
-0.6862745098039085
 74
     0
 49
0.6862745098039085
 74
     0
 49
-0.6862745098039085
 74
     0
  0
LTYPE
  5
3D
330
5
100
AcDbSymbolTableRecord
100
AcDbLinetypeTableRecord
  2
BORDERX2
 70
     0
  3
CADPAC LINETYPE
 72
    65
 73
     6
 40
10.00816993464046
 49
2.859477124182988
 74
     0
 49
-1.429738562091494
 74
     0
 49
2.859477124182988
 74
     0
 49
-1.429738562091494
 74
     0
 49
0.0
 74
     0
 49
-1.429738562091494
 74
     0
  0
LTYPE
  5
3E
330
5
100
AcDbSymbolTableRecord
100
AcDbLinetypeTableRecord
  2
BORDER
 70
     0
  3
CADPAC LINETYPE
 72
    65
 73
     6
 40
8.006535947712365
 49
2.28758169934639
 74
     0
 49
-1.143790849673195
 74
     0
 49
2.28758169934639
 74
     0
 49
-1.143790849673195
 74
     0
 49
0.0
 74
     0
 49
-1.143790849673195
 74
     0
  0
LTYPE
  5
3F
330
5
100
AcDbSymbolTableRecord
100
AcDbLinetypeTableRecord
  2
BORDER2
 70
     0
  3
CADPAC LINETYPE
 72
    65
 73
     6
 40
5.947712418300569
 49
1.830065359477089
 74
     0
 49
-1.143790849673195
 74
     0
 49
0.6862745098038943
 74
     0
 49
-1.143790849673195
 74
     0
 49
0.0
 74
     0
 49
-1.143790849673195
 74
     0
  0
LTYPE
  5
40
330
5
100
AcDbSymbolTableRecord
100
AcDbLinetypeTableRecord
  2
PHANTOMX2
 70
     0
  3
CADPAC LINETYPE
 72
    65
 73
     6
 40
8.578431372548963
 49
2.859477124182988
 74
     0
 49
-1.143790849673195
 74
     0
 49
1.143790849673195
 74
     0
 49
-1.143790849673195
 74
     0
 49
1.143790849673195
 74
     0
 49
-1.143790849673195
 74
     0
  0
LTYPE
  5
41
330
5
100
AcDbSymbolTableRecord
100
AcDbLinetypeTableRecord
  2
PHANTOM
 70
     0
  3
CADPAC LINETYPE
 72
    65
 73
     6
 40
7.09150326797381
 49
2.28758169934639
 74
     0
 49
-1.143790849673195
 74
     0
 49
0.686274509803917
 74
     0
 49
-1.143790849673195
 74
     0
 49
0.686274509803917
 74
     0
 49
-1.143790849673195
 74
     0
  0
LTYPE
  5
42
330
5
100
AcDbSymbolTableRecord
100
AcDbLinetypeTableRecord
  2
PHANTOM2
 70
     0
  3
CADPAC LINETYPE
 72
    65
 73
     6
 40
6.062091503267933
 49
1.715686274509793
 74
     0
 49
-1.143790849673195
 74
     0
 49
0.457516339869278
 74
     0
 49
-1.143790849673195
 74
     0
 49
0.457516339869278
 74
     0
 49
-1.143790849673195
 74
     0
  0
LTYPE
  5
43
330
5
100
AcDbSymbolTableRecord
100
AcDbLinetypeTableRecord
  2
ACAD_ISO06W100
 70
     0
  3
CADPAC LINETYPE
 72
    65
 73
     8
 40
12.12418300653582
 49
5.490196078431353
 74
     0
 49
-1.143790849673195
 74
     0
 49
0.6862745098038943
 74
     0
 49
-1.143790849673195
 74
     0
 49
0.6862745098038943
 74
     0
 49
-1.143790849673195
 74
     0
 49
0.6862745098038943
 74
     0
 49
-1.143790849673195
 74
     0
  0
LTYPE
  5
44
330
5
100
AcDbSymbolTableRecord
100
AcDbLinetypeTableRecord
  2
ACAD_ISO13W100
 70
     0
  3
CADPAC LINETYPE
 72
    65
 73
     8
 40
9.15032679738556
 49
2.28758169934639
 74
     0
 49
-1.143790849673195
 74
     0
 49
2.28758169934639
 74
     0
 49
-1.143790849673195
 74
     0
 49
0.0
 74
     0
 49
-1.143790849673195
 74
     0
 49
0.0
 74
     0
 49
-1.143790849673195
 74
     0
  0
LTYPE
  5
45
330
5
100
AcDbSymbolTableRecord
100
AcDbLinetypeTableRecord
  2
ACAD_ISO14W100
 70
     0
  3
CADPAC LINETYPE
 72
    65
 73
     8
 40
6.86274509803917
 49
2.28758169934639
 74
     0
 49
-1.143790849673195
 74
     0
 49
0.0
 74
     0
 49
-1.143790849673195
 74
     0
 49
0.0
 74
     0
 49
-1.143790849673195
 74
     0
 49
0.0
 74
     0
 49
-1.143790849673195
 74
     0
  0
ENDTAB
  0
TABLE
  2
LAYER
  5
2
330
0
100
AcDbSymbolTable
 70
     1
  0
LAYER
  5
10
330
2
100
AcDbSymbolTableRecord
100
AcDbLayerTableRecord
  2
0
 70
     0
 62
     7
  6
CONTINUOUS
  0
ENDTAB
  0
TABLE
  2
STYLE
  5
3
330
0
100
AcDbSymbolTable
 70
     2
  0
STYLE
  5
11
330
3
100
AcDbSymbolTableRecord
100
AcDbTextStyleTableRecord
  2
STANDARD
 70
     0
 40
0.0
 41
1.0
 50
0.0
 71
     0
 42
0.2
  3
txt
  4

  0
STYLE
  5
61
330
3
100
AcDbSymbolTableRecord
100
AcDbTextStyleTableRecord
  2
FDASTYLE0
 70
     0
 40
4.0
 41
0.7500000000000001
 50
0.0
 71
     0
 42
0.2
  3
txt.shx
  4
bigfont
  0
ENDTAB
  0
TABLE
  2
VIEW
  5
6
330
0
100
AcDbSymbolTable
 70
     0
  0
ENDTAB
  0
TABLE
  2
UCS
  5
7
330
0
100
AcDbSymbolTable
 70
     0
  0
ENDTAB
  0
TABLE
  2
APPID
  5
9
330
0
100
AcDbSymbolTable
 70
     2
  0
APPID
  5
12
330
9
100
AcDbSymbolTableRecord
100
AcDbRegAppTableRecord
  2
ACAD
 70
     0
  0
APPID
  5
2A
330
9
100
AcDbSymbolTableRecord
100
AcDbRegAppTableRecord
  2
DAFUSIONOUT
 70
     0
  0
ENDTAB
  0
TABLE
  2
DIMSTYLE
  5
A
330
0
100
AcDbSymbolTable
 70
     1
  0
DIMSTYLE
105
27
330
A
100
AcDbSymbolTableRecord
100
AcDbDimStyleTableRecord
  2
STANDARD
 70
     0
  3

  4

  5

  6

  7

 40
1.0
 41
0.18
 42
0.0625
 43
0.38
 44
0.18
 45
0.0
 46
0.0
 47
0.0
 48
0.0
140
0.18
141
0.09
142
0.0
143
25.4
144
1.0
145
0.0
146
1.0
147
0.09
 71
     0
 72
     0
 73
     1
 74
     1
 75
     0
 76
     0
 77
     0
 78
     0
170
     0
171
     2
172
     0
173
     0
174
     0
175
     0
176
     0
177
     0
178
     0
270
     2
271
     4
272
     4
273
     2
274
     2
340
11
275
     0
280
     0
281
     0
282
     0
283
     1
284
     0
285
     0
286
     0
287
     3
288
     0
  0
ENDTAB
  0
TABLE
  2
BLOCK_RECORD
  5
1
330
0
100
AcDbSymbolTable
 70
     8
  0
BLOCK_RECORD
  5
1F
330
1
100
AcDbSymbolTableRecord
100
AcDbBlockTableRecord
  2
*MODEL_SPACE
  0
BLOCK_RECORD
  5
1B
330
1
100
AcDbSymbolTableRecord
100
AcDbBlockTableRecord
  2
*PAPER_SPACE
  0
BLOCK_RECORD
  5
47
330
1
100
AcDbSymbolTableRecord
100
AcDbBlockTableRecord
  2
DA_IMAGEDIMGROUP_1
  0
BLOCK_RECORD
  5
4A
330
1
100
AcDbSymbolTableRecord
100
AcDbBlockTableRecord
  2
DA_IMAGEDIMGROUP_2
  0
BLOCK_RECORD
  5
4D
330
1
100
AcDbSymbolTableRecord
100
AcDbBlockTableRecord
  2
DA_IMAGEDIMGROUP_3
  0
BLOCK_RECORD
  5
50
330
1
100
AcDbSymbolTableRecord
100
AcDbBlockTableRecord
  2
DA_IMAGEDIMGROUP_4
  0
BLOCK_RECORD
  5
53
330
1
100
AcDbSymbolTableRecord
100
AcDbBlockTableRecord
  2
DA_IMAGEDIMGROUP_5
  0
BLOCK_RECORD
  5
58
330
1
100
AcDbSymbolTableRecord
100
AcDbBlockTableRecord
  2
_OPEN30
  0
BLOCK_RECORD
  5
88
330
1
100
AcDbSymbolTableRecord
100
AcDbBlockTableRecord
  2
_DOT
  0
ENDTAB
  0
ENDSEC
  0
SECTION
  2
BLOCKS
  0
BLOCK
  5
20
330
1F
100
AcDbEntity
  8
0
100
AcDbBlockBegin
  2
*MODEL_SPACE
 70
     0
 71
     0
 10
0.0
 20
0.0
 30
0.0
  3
*MODEL_SPACE
  1

  0
ENDBLK
  5
21
330
1F
100
AcDbEntity
  8
0
100
AcDbBlockEnd
  0
BLOCK
  5
1C
330
1B
100
AcDbEntity
 67
     1
  8
0
100
AcDbBlockBegin
  2
*PAPER_SPACE
 70
     0
 71
     0
 10
0.0
 20
0.0
 30
0.0
  3
*PAPER_SPACE
  1

  0
ENDBLK
  5
1D
330
1B
100
AcDbEntity
 67
     1
  8
0
100
AcDbBlockEnd
  0
BLOCK
  5
48
330
47
100
AcDbEntity
  8
0
100
AcDbBlockBegin
  2
DA_IMAGEDIMGROUP_1
 70
     0
 71
     0
 10
0.0
 20
0.0
 30
0.0
  3
DA_IMAGEDIMGROUP_1
  1

  0
LINE
  5
56
330
47
100
AcDbEntity
  8
0
  6
CONTINUOUS
 62
     9
100
AcDbLine
 10
39.49999952316276
 20
-8.319109865889553
 30
0.0
 11
39.49999952316276
 21
7.680889597668644
 31
0.0
  0
LINE
  5
57
330
47
100
AcDbEntity
  8
0
  6
CONTINUOUS
 62
     9
100
AcDbLine
 10
39.49999952316277
 20
-30.68088986588955
 30
0.0
 11
39.49999952316276
 21
-8.319109865889553
 31
0.0
  0
INSERT
  5
5E
330
47
100
AcDbEntity
  8
0
 62
     9
100
AcDbBlockReference
  2
_OPEN30
 10
39.49999952316276
 20
-8.319109865889553
 30
0.0
 41
3.000002787824364
 42
2.999989273978464
 50
90.00000000000001
  0
LINE
  5
5F
330
47
100
AcDbEntity
  8
0
  6
CONTINUOUS
 62
     9
100
AcDbLine
 10
39.49999952316276
 20
12.68088959766864
 30
0.0
 11
39.49999952316276
 21
7.680889597668644
 31
0.0
  0
INSERT
  5
60
330
47
100
AcDbEntity
  8
0
 62
     9
100
AcDbBlockReference
  2
_OPEN30
 10
39.49999952316276
 20
7.680889597668644
 30
0.0
 41
3.000002787824364
 42
2.999989273978464
 50
270.0
  0
TEXT
  5
62
330
47
100
AcDbEntity
  8
0
 62
     7
100
AcDbText
 10
38.49999952316276
 20
-29.68088986588955
 30
0.0
 40
4.0
  1
φ16
 50
90.0
 41
0.7500000000000001
  7
FDASTYLE0
 72
     5
 11
38.49999952316276
 21
-20.08088986588955
 31
0.0
100
AcDbText
  0
TEXT
  5
63
330
47
100
AcDbEntity
  8
0
 62
     7
100
AcDbText
 10
35.89999952316276
 20
-19.08088986588955
 30
0.0
 40
2.6
  1
±0.2
 50
90.0
 41
0.7619047619047619
  7
FDASTYLE0
 72
     5
 11
35.89999952316276
 21
-10.76088986588955
 31
0.0
100
AcDbText
  0
ENDBLK
  5
49
330
47
100
AcDbEntity
  8
0
100
AcDbBlockEnd
  0
BLOCK
  5
4B
330
4A
100
AcDbEntity
  8
0
100
AcDbBlockBegin
  2
DA_IMAGEDIMGROUP_2
 70
     0
 71
     0
 10
0.0
 20
0.0
 30
0.0
  3
DA_IMAGEDIMGROUP_2
  1

  0
LINE
  5
64
330
4A
100
AcDbEntity
  8
0
  6
CONTINUOUS
 62
     9
100
AcDbLine
 10
56.85000047683709
 20
5.580889752640735
 30
0.0
 11
56.85000047683709
 21
24.68088959766865
 31
0.0
  0
LINE
  5
65
330
4A
100
AcDbEntity
  8
0
  6
CONTINUOUS
 62
     9
100
AcDbLine
 10
51.84999952316277
 20
7.744089865889569
 30
0.0
 11
51.84999952316277
 21
24.68088959766865
 31
0.0
  0
LINE
  5
66
330
4A
100
AcDbEntity
  8
0
  6
CONTINUOUS
 62
     9
100
AcDbLine
 10
51.84999952316277
 20
23.68088959766865
 30
0.0
 11
56.85000047683709
 21
23.68088959766865
 31
0.0
  0
LINE
  5
67
330
4A
100
AcDbEntity
  8
0
  6
CONTINUOUS
 62
     9
100
AcDbLine
 10
61.85000047683709
 20
23.68088959766865
 30
0.0
 11
56.85000047683709
 21
23.68088959766865
 31
0.0
  0
INSERT
  5
68
330
4A
100
AcDbEntity
  8
0
 62
     9
100
AcDbBlockReference
  2
_OPEN30
 10
56.85000047683709
 20
23.68088959766865
 30
0.0
 41
3.000002787824364
 42
2.999989273978464
 50
180.0
  0
LINE
  5
69
330
4A
100
AcDbEntity
  8
0
  6
CONTINUOUS
 62
     9
100
AcDbLine
 10
46.84999952316277
 20
23.68088959766865
 30
0.0
 11
51.84999952316277
 21
23.68088959766865
 31
0.0
  0
INSERT
  5
6A
330
4A
100
AcDbEntity
  8
0
 62
     9
100
AcDbBlockReference
  2
_OPEN30
 10
51.84999952316277
 20
23.68088959766865
 30
0.0
 41
3.000002787824364
 42
2.999989273978464
 50
360.0
  0
TEXT
  5
6B
330
4A
100
AcDbEntity
  8
0
 62
     7
100
AcDbText
 10
52.74999999999993
 20
24.68088959766865
 30
0.0
 40
4.0
  1
5
 41
0.8000000000000007
  7
FDASTYLE0
 72
     5
 11
55.94999999999993
 21
24.68088959766865
 31
0.0
100
AcDbText
  0
ENDBLK
  5
4C
330
4A
100
AcDbEntity
  8
0
100
AcDbBlockEnd
  0
BLOCK
  5
4E
330
4D
100
AcDbEntity
  8
0
100
AcDbBlockBegin
  2
DA_IMAGEDIMGROUP_3
 70
     0
 71
     0
 10
0.0
 20
0.0
 30
0.0
  3
DA_IMAGEDIMGROUP_3
  1

  0
LINE
  5
6C
330
4D
100
AcDbEntity
  8
0
  6
CONTINUOUS
 62
     9
100
AcDbLine
 10
57.85000047683709
 20
-4.919110020861618
 30
0.0
 11
67.8500004768371
 21
-4.919110020861618
 31
0.0
  0
LINE
  5
6D
330
4D
100
AcDbEntity
  8
0
  6
CONTINUOUS
 62
     9
100
AcDbLine
 10
57.85000047683709
 20
4.280889752640723
 30
0.0
 11
67.8500004768371
 21
4.280889752640723
 31
0.0
  0
LINE
  5
6E
330
4D
100
AcDbEntity
  8
0
  6
CONTINUOUS
 62
     9
100
AcDbLine
 10
66.8500004768371
 20
-4.919110020861618
 30
0.0
 11
66.8500004768371
 21
4.280889752640723
 31
0.0
  0
INSERT
  5
6F
330
4D
100
AcDbEntity
  8
0
 62
     9
100
AcDbBlockReference
  2
_OPEN30
 10
66.8500004768371
 20
-4.919110020861618
 30
0.0
 41
3.000002787824364
 42
2.999989273978464
 50
270.0
  0
INSERT
  5
70
330
4D
100
AcDbEntity
  8
0
 62
     9
100
AcDbBlockReference
  2
_OPEN30
 10
66.8500004768371
 20
4.280889752640723
 30
0.0
 41
3.000002787824364
 42
2.999989273978464
 50
90.0
  0
TEXT
  5
71
330
4D
100
AcDbEntity
  8
0
 62
     7
100
AcDbText
 10
65.8500004768371
 20
-5.119110134110445
 30
0.0
 40
4.0
  1
9.2
 50
90.0
 41
0.7999999999999995
  7
FDASTYLE0
 72
     5
 11
65.8500004768371
 21
4.48088986588955
 31
0.0
100
AcDbText
  0
ENDBLK
  5
4F
330
4D
100
AcDbEntity
  8
0
100
AcDbBlockEnd
  0
BLOCK
  5
51
330
50
100
AcDbEntity
  8
0
100
AcDbBlockBegin
  2
DA_IMAGEDIMGROUP_4
 70
     0
 71
     0
 10
0.0
 20
0.0
 30
0.0
  3
DA_IMAGEDIMGROUP_4
  1

  0
LINE
  5
72
330
50
100
AcDbEntity
  8
0
  6
CONTINUOUS
 62
     9
100
AcDbLine
 10
-10.05000047683726
 20
-4.319110134110426
 30
0.0
 11
-58.55000047683726
 21
-4.319110134110426
 31
0.0
  0
LINE
  5
73
330
50
100
AcDbEntity
  8
0
  6
CONTINUOUS
 62
     9
100
AcDbLine
 10
-10.05000047683726
 20
3.680889865889574
 30
0.0
 11
-58.55000047683726
 21
3.680889865889574
 31
0.0
  0
LINE
  5
74
330
50
100
AcDbEntity
  8
0
  6
CONTINUOUS
 62
     9
100
AcDbLine
 10
-57.55000047683726
 20
-4.319110134110426
 30
0.0
 11
-57.55000047683726
 21
3.680889865889574
 31
0.0
  0
INSERT
  5
75
330
50
100
AcDbEntity
  8
0
 62
     9
100
AcDbBlockReference
  2
_OPEN30
 10
-57.55000047683726
 20
-4.319110134110426
 30
0.0
 41
3.000002787824364
 42
2.999989273978464
 50
270.0
  0
INSERT
  5
76
330
50
100
AcDbEntity
  8
0
 62
     9
100
AcDbBlockReference
  2
_OPEN30
 10
-57.55000047683726
 20
3.680889865889574
 30
0.0
 41
3.000002787824364
 42
2.999989273978464
 50
90.0
  0
TEXT
  5
77
330
50
100
AcDbEntity
  8
0
 62
     7
100
AcDbText
 10
-58.55000047683726
 20
-3.519110134110429
 30
0.0
 40
4.0
  1
φ8
 50
90.0
 41
0.7272727272727279
  7
FDASTYLE0
 72
     5
 11
-58.55000047683726
 21
2.880889865889577
 31
0.0
100
AcDbText
  0
ENDBLK
  5
52
330
50
100
AcDbEntity
  8
0
100
AcDbBlockEnd
  0
BLOCK
  5
54
330
53
100
AcDbEntity
  8
0
100
AcDbBlockBegin
  2
DA_IMAGEDIMGROUP_5
 70
     0
 71
     0
 10
0.0
 20
0.0
 30
0.0
  3
DA_IMAGEDIMGROUP_5
  1

  0
LINE
  5
78
330
53
100
AcDbEntity
  8
0
  6
CONTINUOUS
 62
     9
100
AcDbLine
 10
-7.450000476837253
 20
-8.319110134110433
 30
0.0
 11
-68.55000047683726
 21
-8.319110134110433
 31
0.0
  0
LINE
  5
79
330
53
100
AcDbEntity
  8
0
  6
CONTINUOUS
 62
     9
100
AcDbLine
 10
-7.450000476837253
 20
7.680889865889574
 30
0.0
 11
-68.55000047683726
 21
7.680889865889574
 31
0.0
  0
LINE
  5
7A
330
53
100
AcDbEntity
  8
0
  6
CONTINUOUS
 62
     9
100
AcDbLine
 10
-67.55000047683726
 20
-8.319110134110433
 30
0.0
 11
-67.55000047683726
 21
7.680889865889574
 31
0.0
  0
INSERT
  5
7B
330
53
100
AcDbEntity
  8
0
 62
     9
100
AcDbBlockReference
  2
_OPEN30
 10
-67.55000047683726
 20
-8.319110134110433
 30
0.0
 41
3.000002787824364
 42
2.999989273978464
 50
270.0
  0
INSERT
  5
7C
330
53
100
AcDbEntity
  8
0
 62
     9
100
AcDbBlockReference
  2
_OPEN30
 10
-67.55000047683726
 20
7.680889865889574
 30
0.0
 41
3.000002787824364
 42
2.999989273978464
 50
90.0
  0
TEXT
  5
7D
330
53
100
AcDbEntity
  8
0
 62
     7
100
AcDbText
 10
-68.55000047683726
 20
-9.779110134110427
 30
0.0
 40
4.0
  1
φ16
 50
90.0
 41
0.7499999999999996
  7
FDASTYLE0
 72
     5
 11
-68.55000047683726
 21
-0.1791101341104326
 31
0.0
100
AcDbText
  0
TEXT
  5
7E
330
53
100
AcDbEntity
  8
0
 62
     7
100
AcDbText
 10
-71.15000047683725
 20
0.8208898658895674
 30
0.0
 40
2.6
  1
±0.2
 50
90.0
 41
0.7619047619047619
  7
FDASTYLE0
 72
     5
 11
-71.15000047683725
 21
9.140889865889568
 31
0.0
100
AcDbText
  0
ENDBLK
  5
55
330
53
100
AcDbEntity
  8
0
100
AcDbBlockEnd
  0
BLOCK
  5
59
330
58
100
AcDbEntity
  8
0
100
AcDbBlockBegin
  2
_OPEN30
 70
     0
 71
     0
 10
0.0
 20
0.0
 30
0.0
  3
_OPEN30
  1

  0
LINE
  5
5B
330
58
100
AcDbEntity
  8
0
  6
BYBLOCK
 62
     0
100
AcDbLine
 10
-1.0
 20
0.267949
 30
0.0
 11
0.0
 21
0.0
 31
0.0
  0
LINE
  5
5C
330
58
100
AcDbEntity
  8
0
  6
BYBLOCK
 62
     0
100
AcDbLine
 10
0.0
 20
0.0
 30
0.0
 11
-1.0
 21
-0.267949
 31
0.0
  0
LINE
  5
5D
330
58
100
AcDbEntity
  8
0
  6
BYBLOCK
 62
     0
100
AcDbLine
 10
0.0
 20
0.0
 30
0.0
 11
-1.0
 21
0.0
 31
0.0
  0
ENDBLK
  5
5A
330
58
100
AcDbEntity
  8
0
100
AcDbBlockEnd
  0
BLOCK
  5
89
330
88
100
AcDbEntity
  8
0
100
AcDbBlockBegin
  2
_DOT
 70
     0
 71
     0
 10
0.0
 20
0.0
 30
0.0
  3
_DOT
  1

  0
LWPOLYLINE
  5
8B
330
88
100
AcDbEntity
  8
0
  6
BYBLOCK
 62
     0
100
AcDbPolyline
 90
        2
 70
     1
 43
0.5
 10
-0.25
 20
0.0
 42
1.0
 10
0.25
 20
0.0
 42
1.0
  0
LINE
  5
8C
330
88
100
AcDbEntity
  8
0
  6
BYBLOCK
 62
     0
100
AcDbLine
 10
-0.5
 20
0.0
 30
0.0
 11
-1.0
 21
0.0
 31
0.0
  0
ENDBLK
  5
8A
330
88
100
AcDbEntity
  8
0
100
AcDbBlockEnd
  0
ENDSEC
  0
SECTION
  2
ENTITIES
  0
LINE
  5
7F
330
1F
100
AcDbEntity
  8
0
  6
CENTER
 62
     9
100
AcDbLine
 10
54.04999952316278
 20
-0.3191101341104545
 30
0.0
 11
-18.55000047683726
 21
-0.3191101341104545
 31
0.0
  0
LINE
  5
80
330
1F
100
AcDbEntity
  8
0
  6
CENTER
 62
     9
100
AcDbLine
 10
-80.05000047683726
 20
-1.819110134110433
 30
0.0
 11
-80.05000047683726
 21
1.180889865889567
 31
0.0
  0
LINE
  5
81
330
1F
100
AcDbEntity
  8
0
  6
CENTER
 62
     9
100
AcDbLine
 10
-92.05000047683706
 20
-1.819110134110579
 30
0.0
 11
-92.05000047683711
 21
1.18088986588944
 31
0.0
  0
LINE
  5
82
330
1F
100
AcDbEntity
  8
0
  6
DIVIDE
 62
     9
100
AcDbLine
 10
27.49999952316277
 20
7.680889597668644
 30
0.0
 11
27.49999952316277
 21
-8.319109865889553
 31
0.0
  0
LINE
  5
83
330
1F
100
AcDbEntity
  8
0
  6
DIVIDE
 62
     9
100
AcDbLine
 10
43.49999952316276
 20
7.680889597668644
 30
0.0
 11
43.49999952316276
 21
-8.319109865889553
 31
0.0
  0
CIRCLE
  5
84
330
1F
100
AcDbEntity
  8
0
  6
CONTINUOUS
 62
     9
100
AcDbCircle
 10
-80.05000047683726
 20
-0.3191101341104332
 30
0.0
 40
1.0
  0
CIRCLE
  5
85
330
1F
100
AcDbEntity
  8
0
  6
CONTINUOUS
 62
     9
100
AcDbCircle
 10
-92.05000047683726
 20
-0.3191101341105753
 30
0.0
 40
1.0
  0
LINE
  5
86
330
1F
100
AcDbEntity
  8
0
  6
CONTINUOUS
 62
     9
100
AcDbLine
 10
-28.88703231775465
 20
-24.31911013411045
 30
0.0
 11
16.84999952316277
 21
-24.31911013411045
 31
0.0
  0
LINE
  5
87
330
1F
100
AcDbEntity
  8
0
  6
CONTINUOUS
 62
     9
100
AcDbLine
 10
16.84999952316277
 20
-24.31911013411045
 30
0.0
 11
31.49999952316277
 21
-4.319110000000004
 31
0.0
  0
INSERT
  5
8D
330
1F
100
AcDbEntity
  8
0
 62
     9
100
AcDbBlockReference
  2
_DOT
 10
31.49999952316277
 20
-4.319110000000004
 30
0.0
 41
2.5
 42
2.5
 50
53.77722379987731
  0
LINE
  5
8E
330
1F
100
AcDbEntity
  8
0
  6
CONTINUOUS
 62
     9
100
AcDbLine
 10
80.92660114149618
 20
-4.995219398946251
 30
0.0
 11
76.8500004768371
 21
-16.31911013411045
 31
0.0
  0
INSERT
  5
8F
330
1F
100
AcDbEntity
  8
0
 62
     9
100
AcDbBlockReference
  2
_OPEN30
 10
80.92660114149618
 20
-4.995219398946251
 30
0.0
 41
3.000002787824364
 42
2.999989273978464
 50
70.20112364547519
  0
LINE
  5
90
330
1F
100
AcDbEntity
  8
0
  6
CONTINUOUS
 62
     3
100
AcDbLine
 10
16.74999952316275
 20
7.680889865889546
 30
0.0
 11
16.74999952316275
 21
-8.319110134110447
 31
0.0
  0
LINE
  5
91
330
1F
100
AcDbEntity
  8
0
  6
CONTINUOUS
 62
     3
100
AcDbLine
 10
16.84999952316275
 20
7.080889865889551
 30
0.0
 11
16.74999952316275
 21
7.080889865889551
 31
0.0
  0
LINE
  5
92
330
1F
100
AcDbEntity
  8
0
  6
CONTINUOUS
 62
     3
100
AcDbLine
 10
16.84999952316276
 20
-7.71911013411046
 30
0.0
 11
16.74999952316276
 21
-7.71911013411046
 31
0.0
  0
CIRCLE
  5
93
330
1F
100
AcDbEntity
  8
0
  6
CONTINUOUS
 62
     3
100
AcDbCircle
 10
-80.05000047683726
 20
-0.3191101341104332
 30
0.0
 40
0.7849999999999966
  0
CIRCLE
  5
94
330
1F
100
AcDbEntity
  8
0
  6
CONTINUOUS
 62
     3
100
AcDbCircle
 10
-92.05000047683726
 20
-0.3191101341105753
 30
0.0
 40
0.7849999999999966
  0
CIRCLE
  5
95
330
1F
100
AcDbEntity
  8
0
  6
CONTINUOUS
 62
     3
100
AcDbCircle
 10
-86.05000047683726
 20
-0.3191101341104901
 30
0.0
 40
3.999999999999999
  0
CIRCLE
  5
96
330
1F
100
AcDbEntity
  8
0
  6
CONTINUOUS
 62
     3
100
AcDbCircle
 10
-86.05000047683734
 20
-0.3191101341104545
 30
0.0
 40
2.0
  0
LINE
  5
97
330
1F
100
AcDbEntity
  8
0
  6
CONTINUOUS
 62
     3
100
AcDbLine
 10
-84.31794966926842
 20
0.6808898658895455
 30
0.0
 11
-84.04453918326905
 21
0.8387434835806698
 31
0.0
  0
LINE
  5
98
330
1F
100
AcDbEntity
  8
0
  6
CONTINUOUS
 62
     3
100
AcDbLine
 10
-84.31794966926844
 20
-1.319110134110455
 30
0.0
 11
-84.04453918326891
 21
-1.476963751801323
 31
0.0
  0
LINE
  5
99
330
1F
100
AcDbEntity
  8
0
  6
CONTINUOUS
 62
     3
100
AcDbLine
 10
-86.05000047683734
 20
-2.319110134110455
 30
0.0
 11
-86.05000047683734
 21
-2.634817369492334
 31
0.0
  0
LINE
  5
9A
330
1F
100
AcDbEntity
  8
0
  6
CONTINUOUS
 62
     3
100
AcDbLine
 10
-86.05000047683734
 20
1.680889865889546
 30
0.0
 11
-86.05000047683734
 21
1.996597101271432
 31
0.0
  0
ARC
  5
9B
330
1F
100
AcDbEntity
  8
0
  6
CONTINUOUS
 62
     3
100
AcDbCircle
 10
-86.05000047683734
 20
-0.3191101341104474
 30
0.0
 40
3.5
100
AcDbArc
 50
212.2182484636974
 51
507.7817515363018
  0
ARC
  5
9C
330
1F
100
AcDbEntity
  8
0
  6
CONTINUOUS
 62
     3
100
AcDbCircle
 10
-86.05000047683734
 20
-0.3191101341104474
 30
0.0
 40
2.75
100
AcDbArc
 50
279.8001899451123
 51
320.1998100548931
  0
ARC
  5
9D
330
1F
100
AcDbEntity
  8
0
  6
CONTINUOUS
 62
     3
100
AcDbCircle
 10
-86.05000047683734
 20
-0.3191101341104474
 30
0.0
 40
2.75
100
AcDbArc
 50
39.8001899451138
 51
80.19981005488765
  0
LINE
  5
9E
330
1F
100
AcDbEntity
  8
0
  6
CONTINUOUS
 62
     3
100
AcDbLine
 10
-88.77620064842259
 20
0.9472713851335239
 30
0.0
 11
-87.78205128440621
 21
0.6808898658895028
 31
0.0
  0
LINE
  5
9F
330
1F
100
AcDbEntity
  8
0
  6
CONTINUOUS
 62
     3
100
AcDbLine
 10
-88.7762006484231
 20
-1.585491653354653
 30
0.0
 11
-87.78205128440618
 21
-1.319110134110504
 31
0.0
  0
ARC
  5
A0
330
1F
100
AcDbEntity
  8
0
  6
CONTINUOUS
 62
     3
100
AcDbCircle
 10
-88.67267303038159
 20
1.333641715649149
 30
0.0
 40
0.4
100
AcDbArc
 50
147.7817515363026
 51
255.0000000000013
  0
ARC
  5
A1
330
1F
100
AcDbEntity
  8
0
  6
CONTINUOUS
 62
     3
100
AcDbCircle
 10
-88.6726730303821
 20
-1.971861983870278
 30
0.0
 40
0.4
100
AcDbArc
 50
105.0000000000008
 51
212.2182484637017
  0
ARC
  5
A2
330
1F
100
AcDbEntity
  8
0
  6
CONTINUOUS
 62
     3
100
AcDbCircle
 10
-85.65000047683733
 20
1.996597101271432
 30
0.0
 40
0.4
100
AcDbArc
 50
80.1998100548895
 51
180.0
  0
ARC
  5
A3
330
1F
100
AcDbEntity
  8
0
  6
CONTINUOUS
 62
     3
100
AcDbCircle
 10
-84.24453918326904
 20
1.18515364509445
 30
0.0
 40
0.4
100
AcDbArc
 50
299.9999999999982
 51
399.8001899451167
  0
ARC
  5
A4
330
1F
100
AcDbEntity
  8
0
  6
CONTINUOUS
 62
     3
100
AcDbCircle
 10
-84.24453918326893
 20
-1.823373913315097
 30
0.0
 40
0.4
100
AcDbArc
 50
320.1998100548926
 51
419.9999999999998
  0
ARC
  5
A5
330
1F
100
AcDbEntity
  8
0
  6
CONTINUOUS
 62
     3
100
AcDbCircle
 10
-85.65000047683733
 20
-2.634817369492334
 30
0.0
 40
0.4
100
AcDbArc
 50
180.0
 51
279.80018994511
  0
LINE
  5
A6
330
1F
100
AcDbEntity
  8
0
  6
CONTINUOUS
 62
     3
100
AcDbLine
 10
-84.72712482130501
 20
1.180889865889503
 30
0.0
 11
-87.3728761323697
 21
1.180889865889503
 31
0.0
  0
LINE
  5
A7
330
1F
100
AcDbEntity
  8
0
  6
CONTINUOUS
 62
     3
100
AcDbLine
 10
-9.450000476837268
 20
3.430889865889531
 30
0.0
 11
-9.450000476837282
 21
-4.069110134110469
 31
0.0
  0
LINE
  5
A8
330
1F
100
AcDbEntity
  8
0
  6
CONTINUOUS
 62
     3
100
AcDbLine
 10
-9.450000476837282
 20
-3.91911013411042
 30
0.0
 11
-9.05000047683729
 21
-4.319110134110426
 31
0.0
  0
LINE
  5
A9
330
1F
100
AcDbEntity
  8
0
  6
CONTINUOUS
 62
     3
100
AcDbLine
 10
-9.450000476837268
 20
3.280889865889575
 30
0.0
 11
-9.050000476837262
 21
3.680889865889574
 31
0.0
  0
LINE
  5
AA
330
1F
100
AcDbEntity
  8
0
  6
CONTINUOUS
 62
     3
100
AcDbLine
 10
-17.55000047683726
 20
1.180889865889567
 30
0.0
 11
-17.55000047683727
 21
-2.169110134110456
 31
0.0
  0
LINE
  5
AB
330
1F
100
AcDbEntity
  8
0
  6
CONTINUOUS
 62
     3
100
AcDbLine
 10
-6.450000476837253
 20
7.680889865889574
 30
0.0
 11
-6.950000476837253
 21
7.180889865889574
 31
0.0
  0
LINE
  5
AC
330
1F
100
AcDbEntity
  8
0
  6
CONTINUOUS
 62
     3
100
AcDbLine
 10
-6.450000476837253
 20
-8.319110134110433
 30
0.0
 11
-6.950000476837253
 21
-7.819110134110433
 31
0.0
  0
LINE
  5
AD
330
1F
100
AcDbEntity
  8
0
  6
CONTINUOUS
 62
     3
100
AcDbLine
 10
-6.950000476837253
 20
7.180889865889574
 30
0.0
 11
-6.950000476837253
 21
-7.819110134110433
 31
0.0
  0
LINE
  5
AE
330
1F
100
AcDbEntity
  8
0
  6
CONTINUOUS
 62
     3
100
AcDbLine
 10
-6.950000476837253
 20
3.680889865889574
 30
0.0
 11
-9.050000476837262
 21
3.680889865889574
 31
0.0
  0
LINE
  5
AF
330
1F
100
AcDbEntity
  8
0
  6
CONTINUOUS
 62
     3
100
AcDbLine
 10
-6.950000476837253
 20
-4.319110134110433
 30
0.0
 11
-9.05000047683729
 21
-4.319110134110426
 31
0.0
  0
LINE
  5
B0
330
1F
100
AcDbEntity
  8
0
  6
CONTINUOUS
 62
     3
100
AcDbLine
 10
-9.950000476837253
 20
-4.069110134110469
 30
0.0
 11
-9.950000476837253
 21
3.430889865889531
 31
0.0
  0
LINE
  5
B1
330
1F
100
AcDbEntity
  8
0
  6
CONTINUOUS
 62
     3
100
AcDbLine
 10
-10.55000047683726
 20
3.180889865889617
 30
0.0
 11
-10.55000047683726
 21
-3.819110134110384
 31
0.0
  0
LINE
  5
B2
330
1F
100
AcDbEntity
  8
0
  6
CONTINUOUS
 62
     3
100
AcDbLine
 10
-9.050000476837262
 20
3.680889865889574
 30
0.0
 11
-9.050000476837262
 21
-4.319110134110426
 31
0.0
  0
LINE
  5
B3
330
1F
100
AcDbEntity
  8
0
  6
CONTINUOUS
 62
     3
100
AcDbLine
 10
-10.55000047683726
 20
3.180889865889617
 30
0.0
 11
-9.950000476837253
 21
3.180889865889617
 31
0.0
  0
LINE
  5
B4
330
1F
100
AcDbEntity
  8
0
  6
CONTINUOUS
 62
     3
100
AcDbLine
 10
-10.55000047683725
 20
-3.819110134110384
 30
0.0
 11
-9.950000476837253
 21
-3.819110134110384
 31
0.0
  0
LINE
  5
B5
330
1F
100
AcDbEntity
  8
0
  6
CONTINUOUS
 62
     3
100
AcDbLine
 10
-17.40000047683728
 20
-2.319110134110455
 30
0.0
 11
-10.55000047683726
 21
-2.319110134110455
 31
0.0
  0
LINE
  5
B6
330
1F
100
AcDbEntity
  8
0
  6
CONTINUOUS
 62
     3
100
AcDbLine
 10
-10.95000047683724
 20
1.680889865889546
 30
0.0
 11
-10.55000047683726
 21
1.680889865889546
 31
0.0
  0
LINE
  5
B7
330
1F
100
AcDbEntity
  8
0
  6
CONTINUOUS
 62
     3
100
AcDbLine
 10
-10.95000047683724
 20
1.180889865889546
 30
0.0
 11
-17.55000047683727
 21
1.180889865889546
 31
0.0
  0
LINE
  5
B8
330
1F
100
AcDbEntity
  8
0
  6
CONTINUOUS
 62
     3
100
AcDbLine
 10
-10.95000047683724
 20
1.680889865889546
 30
0.0
 11
-10.95000047683724
 21
1.180889865889546
 31
0.0
  0
LINE
  5
B9
330
1F
100
AcDbEntity
  8
0
  6
CONTINUOUS
 62
     3
100
AcDbLine
 10
-9.450000476837268
 20
3.430889865889531
 30
0.0
 11
-9.950000476837253
 21
3.430889865889531
 31
0.0
  0
LINE
  5
BA
330
1F
100
AcDbEntity
  8
0
  6
CONTINUOUS
 62
     3
100
AcDbLine
 10
-9.450000476837282
 20
-4.069110134110469
 30
0.0
 11
-9.950000476837253
 21
-4.069110134110469
 31
0.0
  0
LINE
  5
BB
330
1F
100
AcDbEntity
  8
0
  6
CONTINUOUS
 62
     3
100
AcDbLine
 10
-17.55000047683727
 20
-2.169110134110456
 30
0.0
 11
-17.40000047683728
 21
-2.319110134110455
 31
0.0
  0
CIRCLE
  5
BC
330
1F
100
AcDbEntity
  8
0
  6
CONTINUOUS
 62
     3
100
AcDbCircle
 10
-86.05000047683726
 20
-0.3191101341105043
 30
0.0
 40
8.5
  0
LINE
  5
BD
330
1F
100
AcDbEntity
  8
0
  6
CONTINUOUS
 62
     3
100
AcDbLine
 10
16.74999952316275
 20
7.680889865889546
 30
0.0
 11
-6.450000476837253
 21
7.680889865889553
 31
0.0
  0
LINE
  5
BE
330
1F
100
AcDbEntity
  8
0
  6
CONTINUOUS
 62
     3
100
AcDbLine
 10
16.74999952316275
 20
-8.319110134110447
 30
0.0
 11
-6.450000476837253
 21
-8.319110134110433
 31
0.0
  0
LINE
  5
BF
330
1F
100
AcDbEntity
  8
0
  6
CONTINUOUS
 62
     3
100
AcDbLine
 10
15.5643635563795
 20
4.11107219315277
 30
0.0
 11
14.33563548994601
 21
3.2507075386262
 31
0.0
  0
LINE
  5
C0
330
1F
100
AcDbEntity
  8
0
  6
CONTINUOUS
 62
     3
100
AcDbLine
 10
14.33563548994601
 20
4.111072193152777
 30
0.0
 11
15.5643635563795
 21
3.2507075386262
 31
0.0
  0
ELLIPSE
  5
C1
330
1F
100
AcDbEntity
  8
0
  6
CONTINUOUS
 62
     3
100
AcDbEllipse
 10
14.94999952316276
 20
3.680889865889489
 30
0.0
 11
-1.0
 21
0.0
 31
0.0
210
0.0
220
0.0
230
1.0
 40
0.8
 41
0.0
 42
6.283185307179586
  0
LINE
  5
C2
330
1F
100
AcDbEntity
  8
0
  6
CONTINUOUS
 62
     3
100
AcDbLine
 10
22.34999952316277
 20
-8.319109865889553
 30
0.0
 11
50.64999952316274
 21
-8.319109865889553
 31
0.0
  0
LINE
  5
C3
330
1F
100
AcDbEntity
  8
0
  6
CONTINUOUS
 62
     3
100
AcDbLine
 10
56.85000047683709
 20
-4.919110020861618
 30
0.0
 11
53.04999952316278
 21
-4.919110020861618
 31
0.0
  0
LINE
  5
C4
330
1F
100
AcDbEntity
  8
0
  6
CONTINUOUS
 62
     3
100
AcDbLine
 10
56.85000047683709
 20
-5.21911002086163
 30
0.0
 11
53.04999952316278
 21
-5.21911002086163
 31
0.0
  0
LINE
  5
C5
330
1F
100
AcDbEntity
  8
0
  6
CONTINUOUS
 62
     3
100
AcDbLine
 10
51.84999952316279
 20
-7.019110134110443
 30
0.0
 11
52.44999952316278
 21
-7.019110134110443
 31
0.0
  0
ARC
  5
C6
330
1F
100
AcDbEntity
  8
0
  6
CONTINUOUS
 62
     3
100
AcDbCircle
 10
52.44999952316278
 20
-6.419110134110449
 30
0.0
 40
0.6
100
AcDbArc
 50
270.0
 51
360.0
  0
LINE
  5
C7
330
1F
100
AcDbEntity
  8
0
  6
CONTINUOUS
 62
     3
100
AcDbLine
 10
53.04999952316278
 20
5.780889865889554
 30
0.0
 11
53.04999952316279
 21
-6.419110134110449
 31
0.0
  0
LINE
  5
C8
330
1F
100
AcDbEntity
  8
0
  6
CONTINUOUS
 62
     3
100
AcDbLine
 10
22.34999952316277
 20
-8.319109865889553
 30
0.0
 11
17.04999952316276
 21
-8.319109865889553
 31
0.0
  0
LINE
  5
C9
330
1F
100
AcDbEntity
  8
0
  6
CONTINUOUS
 62
     3
100
AcDbLine
 10
16.84999952316277
 20
-8.11910986588955
 30
0.0
 11
17.04999952316276
 21
-8.319109865889553
 31
0.0
  0
LINE
  5
CA
330
1F
100
AcDbEntity
  8
0
  6
CONTINUOUS
 62
     3
100
AcDbLine
 10
22.34999952316277
 20
7.680889597668644
 30
0.0
 11
50.64999952316274
 21
7.680889597668644
 31
0.0
  0
LINE
  5
CB
330
1F
100
AcDbEntity
  8
0
  6
CONTINUOUS
 62
     3
100
AcDbLine
 10
16.84999952316274
 20
-8.119109865889536
 30
0.0
 11
16.84999952316276
 21
7.480889597668641
 31
0.0
  0
LINE
  5
CC
330
1F
100
AcDbEntity
  8
0
  6
CONTINUOUS
 62
     3
100
AcDbLine
 10
56.85000047683709
 20
4.580889752640735
 30
0.0
 11
56.85000047683709
 21
4.280889752640723
 31
0.0
  0
LINE
  5
CD
330
1F
100
AcDbEntity
  8
0
  6
CONTINUOUS
 62
     3
100
AcDbLine
 10
56.85000047683709
 20
4.280889752640723
 30
0.0
 11
53.04999952316278
 21
4.280889752640723
 31
0.0
  0
LINE
  5
CE
330
1F
100
AcDbEntity
  8
0
  6
CONTINUOUS
 62
     3
100
AcDbLine
 10
56.85000047683709
 20
4.580889752640735
 30
0.0
 11
53.04999952316278
 21
4.580889752640735
 31
0.0
  0
LINE
  5
CF
330
1F
100
AcDbEntity
  8
0
  6
CONTINUOUS
 62
     3
100
AcDbLine
 10
51.84999952316279
 20
-7.382310134110435
 30
0.0
 11
51.84999952316277
 21
6.744089865889569
 31
0.0
  0
LINE
  5
D0
330
1F
100
AcDbEntity
  8
0
  6
CONTINUOUS
 62
     3
100
AcDbLine
 10
50.64999952316274
 20
7.680889597668644
 30
0.0
 11
50.64999952316274
 21
-8.319109865889553
 31
0.0
  0
LINE
  5
D1
330
1F
100
AcDbEntity
  8
0
  6
CONTINUOUS
 62
     3
100
AcDbLine
 10
51.84999952316277
 20
6.380889865889563
 30
0.0
 11
52.44999952316278
 21
6.380889865889563
 31
0.0
  0
ARC
  5
D2
330
1F
100
AcDbEntity
  8
0
  6
CONTINUOUS
 62
     3
100
AcDbCircle
 10
52.44999952316278
 20
5.780889865889554
 30
0.0
 40
0.6
100
AcDbArc
 50
0.0000000000000472
 51
90.00000000000006
  0
LINE
  5
D3
330
1F
100
AcDbEntity
  8
0
  6
CONTINUOUS
 62
     3
100
AcDbLine
 10
22.34999952316277
 20
-8.319109865889553
 30
0.0
 11
22.34999952316277
 21
7.680889597668644
 31
0.0
  0
LINE
  5
D4
330
1F
100
AcDbEntity
  8
0
  6
CONTINUOUS
 62
     3
100
AcDbLine
 10
22.34999952316277
 20
7.680889597668644
 30
0.0
 11
17.04999952316275
 21
7.680889597668644
 31
0.0
  0
LINE
  5
D5
330
1F
100
AcDbEntity
  8
0
  6
CONTINUOUS
 62
     3
100
AcDbLine
 10
16.84999952316276
 20
7.480889597668641
 30
0.0
 11
17.04999952316275
 21
7.680889597668644
 31
0.0
  0
LINE
  5
D6
330
1F
100
AcDbEntity
  8
0
  6
CONTINUOUS
 62
     3
100
AcDbLine
 10
56.85000047683709
 20
-4.919110020861618
 30
0.0
 11
56.85000047683709
 21
-5.21911002086163
 31
0.0
  0
LINE
  5
D7
330
1F
100
AcDbEntity
  8
0
  6
CONTINUOUS
 62
     3
100
AcDbLine
 10
51.84999952316277
 20
6.744089865889569
 30
0.0
 11
50.64999952316274
 21
7.180889597668644
 31
0.0
  0
LINE
  5
D8
330
1F
100
AcDbEntity
  8
0
  6
CONTINUOUS
 62
     3
100
AcDbLine
 10
51.84999952316279
 20
-7.382310134110435
 30
0.0
 11
50.64999952316274
 21
-7.819109865889553
 31
0.0
  0
LINE
  5
D9
330
1F
100
AcDbEntity
  8
0
  6
CONTINUOUS
 62
     3
100
AcDbLine
 10
83.15000047683708
 20
-4.56911002086151
 30
0.0
 11
83.15000047683708
 21
-6.11566083258611
 31
0.0
  0
LINE
  5
DA
330
1F
100
AcDbEntity
  8
0
  6
CONTINUOUS
 62
     3
100
AcDbLine
 10
83.65000047683708
 20
-4.06911002086151
 30
0.0
 11
86.15000047683708
 21
-4.06911002086151
 31
0.0
  0
LINE
  5
DB
330
1F
100
AcDbEntity
  8
0
  6
CONTINUOUS
 62
     3
100
AcDbLine
 10
86.65000047683708
 20
-4.56911002086151
 30
0.0
 11
86.65000047683708
 21
-6.076713802304235
 31
0.0
  0
LINE
  5
DC
330
1F
100
AcDbEntity
  8
0
  6
CONTINUOUS
 62
     3
100
AcDbLine
 10
83.55000047683708
 20
3.430889752640843
 30
0.0
 11
86.15000047683708
 21
3.430889752640843
 31
0.0
  0
LINE
  5
DD
330
1F
100
AcDbEntity
  8
0
  6
CONTINUOUS
 62
     3
100
AcDbLine
 10
86.65000047683708
 20
3.930889752640843
 30
0.0
 11
86.65000047683708
 21
5.438493534083582
 31
0.0
  0
LINE
  5
DE
330
1F
100
AcDbEntity
  8
0
  6
CONTINUOUS
 62
     3
100
AcDbLine
 10
83.05000047683708
 20
3.930889752640843
 30
0.0
 11
83.05000047683708
 21
5.438493534083589
 31
0.0
  0
ARC
  5
DF
330
1F
100
AcDbEntity
  8
0
  6
CONTINUOUS
 62
     3
100
AcDbCircle
 10
83.55000047683708
 20
3.930889752640843
 30
0.0
 40
0.5
100
AcDbArc
 50
180.0
 51
270.0
  0
ARC
  5
E0
330
1F
100
AcDbEntity
  8
0
  6
CONTINUOUS
 62
     3
100
AcDbCircle
 10
86.15000047683708
 20
3.930889752640843
 30
0.0
 40
0.5
100
AcDbArc
 50
270.0
 51
360.0
  0
ARC
  5
E1
330
1F
100
AcDbEntity
  8
0
  6
CONTINUOUS
 62
     3
100
AcDbCircle
 10
86.15000047683708
 20
-4.56911002086151
 30
0.0
 40
0.5
100
AcDbArc
 50
0.0
 51
90.0
  0
ARC
  5
E2
330
1F
100
AcDbEntity
  8
0
  6
CONTINUOUS
 62
     3
100
AcDbCircle
 10
84.8500004768371
 20
-0.3191101341103408
 30
0.0
 40
6.7
100
AcDbArc
 50
111.7753128152793
 51
249.2164404041543
  0
ARC
  5
E3
330
1F
100
AcDbEntity
  8
0
  6
CONTINUOUS
 62
     3
100
AcDbCircle
 10
84.8500004768371
 20
-0.3191101341103408
 30
0.0
 40
6.7
100
AcDbArc
 50
291.7753128152795
 51
428.2246871847206
  0
ARC
  5
E4
330
1F
100
AcDbEntity
  8
0
  6
CONTINUOUS
 62
     3
100
AcDbCircle
 10
83.65000047683708
 20
-4.56911002086151
 30
0.0
 40
0.5
100
AcDbArc
 50
90.0
 51
180.0
  0
ARC
  5
E5
330
1F
100
AcDbEntity
  8
0
  6
CONTINUOUS
 62
     3
100
AcDbCircle
 10
82.65000047683708
 20
-6.11566083258611
 30
0.0
 40
0.5
100
AcDbArc
 50
249.2164404041543
 51
360.0
  0
ARC
  5
E6
330
1F
100
AcDbEntity
  8
0
  6
CONTINUOUS
 62
     3
100
AcDbCircle
 10
87.15000047683708
 20
-6.076713802304235
 30
0.0
 40
0.5
100
AcDbArc
 50
180.0
 51
291.7753128152795
  0
ARC
  5
E7
330
1F
100
AcDbEntity
  8
0
  6
CONTINUOUS
 62
     3
100
AcDbCircle
 10
82.55000047683708
 20
5.438493534083589
 30
0.0
 40
0.5
100
AcDbArc
 50
0.0
 51
111.7753128152792
  0
ARC
  5
E8
330
1F
100
AcDbEntity
  8
0
  6
CONTINUOUS
 62
     3
100
AcDbCircle
 10
87.15000047683708
 20
5.438493534083582
 30
0.0
 40
0.5
100
AcDbArc
 50
68.22468718472075
 51
180.0
  0
LINE
  5
E9
330
1F
100
AcDbEntity
  8
0
  6
CONTINUOUS
 62
     3
100
AcDbLine
 10
85.85000047683712
 20
4.280889865889632
 30
0.0
 11
83.85000047683712
 21
4.280889865889625
 31
0.0
  0
LINE
  5
EA
330
1F
100
AcDbEntity
  8
0
  6
CONTINUOUS
 62
     3
100
AcDbLine
 10
85.85000047683712
 20
4.680889865889631
 30
0.0
 11
85.85000047683712
 21
4.280889865889632
 31
0.0
  0
LINE
  5
EB
330
1F
100
AcDbEntity
  8
0
  6
CONTINUOUS
 62
     3
100
AcDbLine
 10
83.85000047683712
 20
4.680889865889631
 30
0.0
 11
83.85000047683712
 21
4.280889865889632
 31
0.0
  0
LINE
  5
EC
330
1F
100
AcDbEntity
  8
0
  6
CONTINUOUS
 62
     3
100
AcDbLine
 10
83.8500004768371
 20
-4.919110134110364
 30
0.0
 11
85.8500004768371
 21
-4.919110134110364
 31
0.0
  0
LINE
  5
ED
330
1F
100
AcDbEntity
  8
0
  6
CONTINUOUS
 62
     3
100
AcDbLine
 10
83.8500004768371
 20
-5.319110134110369
 30
0.0
 11
83.8500004768371
 21
-4.919110134110364
 31
0.0
  0
LINE
  5
EE
330
1F
100
AcDbEntity
  8
0
  6
CONTINUOUS
 62
     3
100
AcDbLine
 10
85.8500004768371
 20
-5.319110134110369
 30
0.0
 11
85.8500004768371
 21
-4.919110134110364
 31
0.0
  0
CIRCLE
  5
EF
330
1F
100
AcDbEntity
  8
0
  6
CONTINUOUS
 62
     3
100
AcDbCircle
 10
84.8500004768371
 20
-0.3191101341103693
 30
0.0
 40
7.5
  0
CIRCLE
  5
F0
330
1F
100
AcDbEntity
  8
0
  6
CONTINUOUS
 62
     3
100
AcDbCircle
 10
84.8500004768371
 20
-0.3191101341103408
 30
0.0
 40
8.0
  0
LINE
  5
F1
330
1F
100
AcDbEntity
  8
0
  6
CONTINUOUS
 62
     3
100
AcDbLine
 10
85.85000047683712
 20
4.680889865889631
 30
0.0
 11
83.85000047683712
 21
4.680889865889631
 31
0.0
  0
LINE
  5
F2
330
1F
100
AcDbEntity
  8
0
  6
CONTINUOUS
 62
     3
100
AcDbLine
 10
83.8500004768371
 20
-5.319110134110369
 30
0.0
 11
85.8500004768371
 21
-5.319110134110369
 31
0.0
  0
LINE
  5
F3
330
1F
100
AcDbEntity
  8
0
  6
CONTINUOUS
 62
     9
100
AcDbLine
 10
51.84999952316274
 20
7.744125662256158
 30
0.0
 11
51.84999952316274
 21
24.68088959766865
 31
0.0
  0
LINE
  5
F4
330
1F
100
AcDbEntity
  8
0
  6
CONTINUOUS
 62
     9
100
AcDbLine
 10
-92.05000047683711
 20
2.180889865889567
 30
0.0
 11
-92.05000047683711
 21
16.68088959766865
 31
0.0
  0
LINE
  5
F5
330
1F
100
AcDbEntity
  8
0
  6
CONTINUOUS
 62
     9
100
AcDbLine
 10
-80.05000047683726
 20
2.180889865889567
 30
0.0
 11
-80.05000047683728
 21
16.68088959766865
 31
0.0
  0
LINE
  5
F6
330
1F
100
AcDbEntity
  8
0
  6
CONTINUOUS
 62
     9
100
AcDbLine
 10
-92.05000047683711
 20
15.68088959766864
 30
0.0
 11
-80.05000047683728
 21
15.68088959766864
 31
0.0
  0
LINE
  5
F7
330
1F
100
AcDbEntity
  8
0
  6
CONTINUOUS
 62
     9
100
AcDbLine
 10
-18.55000047683727
 20
1.180889865889546
 30
0.0
 11
-38.55000047683726
 21
1.180889865889546
 31
0.0
  0
LINE
  5
F8
330
1F
100
AcDbEntity
  8
0
  6
CONTINUOUS
 62
     9
100
AcDbLine
 10
-37.55000047683726
 20
-2.319110134110455
 30
0.0
 11
-37.55000047683726
 21
1.180889865889546
 31
0.0
  0
LINE
  5
F9
330
1F
100
AcDbEntity
  8
0
  6
CONTINUOUS
 62
     9
100
AcDbLine
 10
-18.40000047683728
 20
-2.319110134110455
 30
0.0
 11
-48.55000047683726
 21
-2.319110134110455
 31
0.0
  0
LINE
  5
FA
330
1F
100
AcDbEntity
  8
0
  6
CONTINUOUS
 62
     9
100
AcDbLine
 10
-11.95000047683724
 20
1.680889865889546
 30
0.0
 11
-48.55000047683726
 21
1.680889865889546
 31
0.0
  0
LINE
  5
FB
330
1F
100
AcDbEntity
  8
0
  6
CONTINUOUS
 62
     9
100
AcDbLine
 10
-47.55000047683726
 20
-2.319110134110455
 30
0.0
 11
-47.55000047683726
 21
1.680889865889546
 31
0.0
  0
LINE
  5
FC
330
1F
100
AcDbEntity
  8
0
  6
CONTINUOUS
 62
     9
100
AcDbLine
 10
-10.95000047683724
 20
2.680889865889546
 30
0.0
 11
-10.95000047683724
 21
16.68088959766865
 31
0.0
  0
LINE
  5
FD
330
1F
100
AcDbEntity
  8
0
  6
CONTINUOUS
 62
     9
100
AcDbLine
 10
-17.55000047683726
 20
15.68088959766864
 30
0.0
 11
-10.95000047683724
 21
15.68088959766864
 31
0.0
  0
LINE
  5
FE
330
1F
100
AcDbEntity
  8
0
  6
CONTINUOUS
 62
     9
100
AcDbLine
 10
-17.55000047683726
 20
2.180889865889567
 30
0.0
 11
-17.55000047683726
 21
24.68088959766865
 31
0.0
  0
LINE
  5
FF
330
1F
100
AcDbEntity
  8
0
  6
CONTINUOUS
 62
     9
100
AcDbLine
 10
-10.55000047683726
 20
4.180889865889617
 30
0.0
 11
-10.55000047683726
 21
24.68088959766865
 31
0.0
  0
LINE
  5
100
330
1F
100
AcDbEntity
  8
0
  6
CONTINUOUS
 62
     9
100
AcDbLine
 10
-6.950000476837253
 20
8.180889865889574
 30
0.0
 11
-6.950000476837253
 21
24.68088959766865
 31
0.0
  0
LINE
  5
101
330
1F
100
AcDbEntity
  8
0
  6
CONTINUOUS
 62
     9
100
AcDbLine
 10
-10.55000047683726
 20
23.68088959766865
 30
0.0
 11
-6.950000476837253
 21
23.68088959766865
 31
0.0
  0
LINE
  5
102
330
1F
100
AcDbEntity
  8
0
  6
CONTINUOUS
 62
     9
100
AcDbLine
 10
51.84999952316275
 20
15.68088959766864
 30
0.0
 11
53.04999952316276
 21
15.68088959766864
 31
0.0
  0
LINE
  5
103
330
1F
100
AcDbEntity
  8
0
  6
CONTINUOUS
 62
     9
100
AcDbLine
 10
53.04999952316276
 20
6.780889865889533
 30
0.0
 11
53.04999952316276
 21
16.68088959766865
 31
0.0
  0
LINE
  5
104
330
1F
100
AcDbEntity
  8
0
  6
CONTINUOUS
 62
     9
100
AcDbLine
 10
16.84999952316275
 20
8.980889657273275
 30
0.0
 11
16.84999952316275
 21
16.68088959766865
 31
0.0
  0
LINE
  5
105
330
1F
100
AcDbEntity
  8
0
  6
CONTINUOUS
 62
     9
100
AcDbLine
 10
-94.55000047683726
 20
-16.31911013411045
 30
0.0
 11
-25.89004731524477
 21
-16.31911013411045
 31
0.0
  0
LINE
  5
106
330
1F
100
AcDbEntity
  8
0
  6
CONTINUOUS
 62
     9
100
AcDbLine
 10
81.1000004768371
 20
-4.069110134110341
 30
0.0
 11
80.12525560544549
 21
-4.069110134110341
 31
0.0
  0
LINE
  5
107
330
1F
100
AcDbEntity
  8
0
  6
CONTINUOUS
 62
     9
100
AcDbLine
 10
81.1000004768371
 20
-5.04385500550192
 30
0.0
 11
81.1000004768371
 21
-4.069110134110341
 31
0.0
  0
LINE
  5
108
330
1F
100
AcDbEntity
  8
0
  6
CONTINUOUS
 62
     9
100
AcDbLine
 10
81.1000004768371
 20
-3.569110134110341
 30
0.0
 11
81.1000004768371
 21
-2.594365262718748
 31
0.0
  0
LINE
  5
109
330
1F
100
AcDbEntity
  8
0
  6
CONTINUOUS
 62
     9
100
AcDbLine
 10
81.6000004768371
 20
-2.594365262718748
 30
0.0
 11
81.6000004768371
 21
-3.569110134110341
 31
0.0
  0
LINE
  5
10A
330
1F
100
AcDbEntity
  8
0
  6
CONTINUOUS
 62
     9
100
AcDbLine
 10
81.6000004768371
 20
-4.069110134110341
 30
0.0
 11
81.6000004768371
 21
-5.04385500550192
 31
0.0
  0
LINE
  5
10B
330
1F
100
AcDbEntity
  8
0
  6
CONTINUOUS
 62
     9
100
AcDbLine
 10
80.12525560544549
 20
-3.569110134110341
 30
0.0
 11
81.1000004768371
 21
-3.569110134110341
 31
0.0
  0
LINE
  5
10C
330
1F
100
AcDbEntity
  8
0
  6
CONTINUOUS
 62
     9
100
AcDbLine
 10
82.57474534822867
 20
-4.069110134110341
 30
0.0
 11
81.6000004768371
 21
-4.069110134110341
 31
0.0
  0
LINE
  5
10D
330
1F
100
AcDbEntity
  8
0
  6
CONTINUOUS
 62
     9
100
AcDbLine
 10
81.6000004768371
 20
-3.569110134110341
 30
0.0
 11
82.57474534822867
 21
-3.569110134110341
 31
0.0
  0
CIRCLE
  5
10E
330
1F
100
AcDbEntity
  8
0
  6
CONTINUOUS
 62
     9
100
AcDbCircle
 10
81.3500004768371
 20
-3.819110134110341
 30
0.0
 40
1.25
  0
LINE
  5
10F
330
1F
100
AcDbEntity
  8
0
  6
CONTINUOUS
 62
     9
100
AcDbLine
 10
54.89564465786272
 20
-16.31911013411044
 30
0.0
 11
76.8500004768371
 21
-16.31911013411045
 31
0.0
  0
LINE
  5
110
330
1F
100
AcDbEntity
  8
0
  6
CONTINUOUS
 62
     9
100
AcDbLine
 10
-17.55000047683726
 20
23.68088959766865
 30
0.0
 11
-10.55000047683726
 21
23.68088959766865
 31
0.0
  0
INSERT
  5
111
330
1F
100
AcDbEntity
  8
0
 62
     9
100
AcDbBlockReference
  2
_DOT
 10
-10.55000047683726
 20
23.68088959766865
 30
0.0
 41
2.5
 42
2.5
 50
360.0
  0
LINE
  5
112
330
1F
100
AcDbEntity
  8
0
  6
CONTINUOUS
 62
     9
100
AcDbLine
 10
-92.17118632785204
 20
-1.094699580605187
 30
0.0
 11
-94.55000047683726
 21
-16.31911013411045
 31
0.0
  0
INSERT
  5
113
330
1F
100
AcDbEntity
  8
0
 62
     9
100
AcDbBlockReference
  2
_OPEN30
 10
-92.17118632785204
 20
-1.094699580605187
 30
0.0
 41
3.000002787824364
 42
2.999989273978464
 50
81.11934084947968
  0
LINE
  5
114
330
1F
100
AcDbEntity
  8
0
  6
CONTINUOUS
 62
     9
100
AcDbLine
 10
16.84999952316275
 20
15.68088959766864
 30
0.0
 11
51.84999952316274
 21
15.68088959766864
 31
0.0
  0
INSERT
  5
115
330
1F
100
AcDbEntity
  8
0
 62
     9
100
AcDbBlockReference
  2
_OPEN30
 10
16.84999952316275
 20
15.68088959766864
 30
0.0
 41
3.000002787824364
 42
2.999989273978464
 50
180.0
  0
INSERT
  5
116
330
1F
100
AcDbEntity
  8
0
 62
     9
100
AcDbBlockReference
  2
_OPEN30
 10
51.84999952316274
 20
15.68088959766864
 30
0.0
 41
3.000002787824364
 42
2.999989273978464
 50
360.0
  0
LINE
  5
117
330
1F
100
AcDbEntity
  8
0
  6
CONTINUOUS
 62
     9
100
AcDbLine
 10
-6.950000476837253
 20
23.68088959766865
 30
0.0
 11
51.84999952316274
 21
23.68088959766865
 31
0.0
  0
INSERT
  5
118
330
1F
100
AcDbEntity
  8
0
 62
     9
100
AcDbBlockReference
  2
_OPEN30
 10
-6.950000476837253
 20
23.68088959766865
 30
0.0
 41
3.000002787824364
 42
2.999989273978464
 50
180.0
  0
INSERT
  5
119
330
1F
100
AcDbEntity
  8
0
 62
     9
100
AcDbBlockReference
  2
_OPEN30
 10
51.84999952316274
 20
23.68088959766865
 30
0.0
 41
3.000002787824364
 42
2.999989273978464
 50
360.0
  0
LINE
  5
11A
330
1F
100
AcDbEntity
  8
0
  6
CENTER
 62
     9
100
AcDbLine
 10
93.8500004768371
 20
-0.3191101341103408
 30
0.0
 11
75.8500004768371
 21
-0.3191101341103408
 31
0.0
  0
LINE
  5
11B
330
1F
100
AcDbEntity
  8
0
  6
CENTER
 62
     9
100
AcDbLine
 10
84.8500004768371
 20
8.680889865889659
 30
0.0
 11
84.8500004768371
 21
-9.319110134110341
 31
0.0
  0
LINE
  5
11C
330
1F
100
AcDbEntity
  8
0
  6
CENTER
 62
     9
100
AcDbLine
 10
-76.55000047683726
 20
-0.3191101341104474
 30
0.0
 11
-95.55000047683743
 21
-0.3191101341104474
 31
0.0
  0
LINE
  5
11D
330
1F
100
AcDbEntity
  8
0
  6
CENTER
 62
     9
100
AcDbLine
 10
-86.05000047683734
 20
9.180889865889638
 30
0.0
 11
-86.05000047683734
 21
-9.819110134110533
 31
0.0
  0
LINE
  5
11E
330
1F
100
AcDbEntity
  8
0
  6
CONTINUOUS
 62
     9
100
AcDbLine
 10
-47.55000047683726
 20
29.56088986588956
 30
0.0
 11
-47.55000047683726
 21
1.680889865889546
 31
0.0
  0
INSERT
  5
11F
330
1F
100
AcDbEntity
  8
0
 62
     9
100
AcDbBlockReference
  2
_OPEN30
 10
-47.55000047683726
 20
1.680889865889546
 30
0.0
 41
3.000002787824364
 42
2.999989273978464
 50
270.0
  0
LINE
  5
120
330
1F
100
AcDbEntity
  8
0
  6
CONTINUOUS
 62
     9
100
AcDbLine
 10
-47.55000047683726
 20
-7.319110134110455
 30
0.0
 11
-47.55000047683726
 21
-2.319110134110455
 31
0.0
  0
INSERT
  5
121
330
1F
100
AcDbEntity
  8
0
 62
     9
100
AcDbBlockReference
  2
_OPEN30
 10
-47.55000047683726
 20
-2.319110134110455
 30
0.0
 41
3.000002787824364
 42
2.999989273978464
 50
90.0
  0
LINE
  5
122
330
1F
100
AcDbEntity
  8
0
  6
CONTINUOUS
 62
     9
100
AcDbLine
 10
-37.55000047683726
 20
30.68088986588955
 30
0.0
 11
-37.55000047683726
 21
1.180889865889546
 31
0.0
  0
INSERT
  5
123
330
1F
100
AcDbEntity
  8
0
 62
     9
100
AcDbBlockReference
  2
_OPEN30
 10
-37.55000047683726
 20
1.180889865889546
 30
0.0
 41
3.000002787824364
 42
2.999989273978464
 50
270.0
  0
LINE
  5
124
330
1F
100
AcDbEntity
  8
0
  6
CONTINUOUS
 62
     9
100
AcDbLine
 10
-37.55000047683726
 20
-7.319110134110455
 30
0.0
 11
-37.55000047683726
 21
-2.319110134110455
 31
0.0
  0
INSERT
  5
125
330
1F
100
AcDbEntity
  8
0
 62
     9
100
AcDbBlockReference
  2
_OPEN30
 10
-37.55000047683726
 20
-2.319110134110455
 30
0.0
 41
3.000002787824364
 42
2.999989273978464
 50
90.0
  0
LINE
  5
126
330
1F
100
AcDbEntity
  8
0
  6
CONTINUOUS
 62
     9
100
AcDbLine
 10
-32.04778047683726
 20
15.68088959766865
 30
0.0
 11
-17.55000047683726
 21
15.68088959766864
 31
0.0
  0
INSERT
  5
127
330
1F
100
AcDbEntity
  8
0
 62
     9
100
AcDbBlockReference
  2
_OPEN30
 10
-17.55000047683726
 20
15.68088959766864
 30
0.0
 41
3.000002787824364
 42
2.999989273978464
 50
360.0
  0
LINE
  5
128
330
1F
100
AcDbEntity
  8
0
  6
CONTINUOUS
 62
     9
100
AcDbLine
 10
-5.950000476837239
 20
15.68088959766864
 30
0.0
 11
-10.95000047683724
 21
15.68088959766864
 31
0.0
  0
INSERT
  5
129
330
1F
100
AcDbEntity
  8
0
 62
     9
100
AcDbBlockReference
  2
_OPEN30
 10
-10.95000047683724
 20
15.68088959766864
 30
0.0
 41
3.000002787824364
 42
2.999989273978464
 50
180.0
  0
LINE
  5
12A
330
1F
100
AcDbEntity
  8
0
  6
CONTINUOUS
 62
     9
100
AcDbLine
 10
-25.64778047683726
 20
23.68088959766865
 30
0.0
 11
-17.55000047683726
 21
23.68088959766865
 31
0.0
  0
INSERT
  5
12B
330
1F
100
AcDbEntity
  8
0
 62
     9
100
AcDbBlockReference
  2
_OPEN30
 10
-17.55000047683726
 20
23.68088959766865
 30
0.0
 41
3.000002787824364
 42
2.999989273978464
 50
360.0
  0
LINE
  5
12C
330
1F
100
AcDbEntity
  8
0
  6
CONTINUOUS
 62
     9
100
AcDbLine
 10
68.45000047683709
 20
15.68088959766864
 30
0.0
 11
53.04999952316276
 21
15.68088959766864
 31
0.0
  0
INSERT
  5
12D
330
1F
100
AcDbEntity
  8
0
 62
     9
100
AcDbBlockReference
  2
_OPEN30
 10
53.04999952316276
 20
15.68088959766864
 30
0.0
 41
3.000002787824364
 42
2.999989273978464
 50
180.0
  0
LINE
  5
12E
330
1F
100
AcDbEntity
  8
0
  6
CONTINUOUS
 62
     9
100
AcDbLine
 10
-97.05000047683711
 20
15.68088959766864
 30
0.0
 11
-92.05000047683711
 21
15.68088959766864
 31
0.0
  0
INSERT
  5
12F
330
1F
100
AcDbEntity
  8
0
 62
     9
100
AcDbBlockReference
  2
_OPEN30
 10
-92.05000047683711
 20
15.68088959766864
 30
0.0
 41
3.000002787824364
 42
2.999989273978464
 50
360.0
  0
LINE
  5
130
330
1F
100
AcDbEntity
  8
0
  6
CONTINUOUS
 62
     9
100
AcDbLine
 10
-75.05000047683728
 20
15.68088959766864
 30
0.0
 11
-80.05000047683728
 21
15.68088959766864
 31
0.0
  0
INSERT
  5
131
330
1F
100
AcDbEntity
  8
0
 62
     9
100
AcDbBlockReference
  2
_OPEN30
 10
-80.05000047683728
 20
15.68088959766864
 30
0.0
 41
3.000002787824364
 42
2.999989273978464
 50
180.0
  0
TEXT
  5
132
330
1F
100
AcDbEntity
  8
0
 62
     7
100
AcDbText
 10
-93.9100004768372
 20
16.68088959766865
 30
0.0
 40
4.0
  1
12
 41
0.8000000000000007
  7
FDASTYLE0
 72
     5
 11
-87.51000047683719
 21
16.68088959766865
 31
0.0
100
AcDbText
  0
TEXT
  5
133
330
1F
100
AcDbEntity
  8
0
 62
     7
100
AcDbText
 10
-86.51000047683719
 20
19.28088959766865
 30
0.0
 40
2.6
  1
±0.2
 41
0.7619047619047624
  7
FDASTYLE0
 72
     5
 11
-78.19000047683718
 21
19.28088959766865
 31
0.0
100
AcDbText
  0
TEXT
  5
134
330
1F
100
AcDbEntity
  8
0
 62
     7
100
AcDbText
 10
-38.55000047683726
 20
8.680889865889553
 30
0.0
 40
4.0
  1
3.5
 50
90.0
 41
0.8000000000000003
  7
FDASTYLE0
 72
     5
 11
-38.55000047683726
 21
18.28088986588956
 31
0.0
100
AcDbText
  0
TEXT
  5
135
330
1F
100
AcDbEntity
  8
0
 62
     7
100
AcDbText
 10
-41.15000047683726
 20
19.28088986588956
 30
0.0
 40
2.6
  1
±0.15
 50
90.0
 41
0.7692307692307692
  7
FDASTYLE0
 72
     5
 11
-41.15000047683726
 21
29.68088986588955
 31
0.0
100
AcDbText
  0
TEXT
  5
136
330
1F
100
AcDbEntity
  8
0
 62
     7
100
AcDbText
 10
-48.55000047683726
 20
8.680889865889553
 30
0.0
 40
4.0
  1
φ4
 50
90.0
 41
0.7272727272727271
  7
FDASTYLE0
 72
     5
 11
-48.55000047683726
 21
15.08088986588955
 31
0.0
100
AcDbText
  0
TEXT
  5
137
330
1F
100
AcDbEntity
  8
0
 62
     7
100
AcDbText
 10
-51.15000047683726
 20
16.08088986588955
 30
0.0
 40
2.6
  1
+0.005
 50
90.0
 41
0.7999999999999997
  7
FDASTYLE0
 72
     5
 11
-51.15000047683726
 21
28.56088986588955
 31
0.0
100
AcDbText
  0
TEXT
  5
138
330
1F
100
AcDbEntity
  8
0
 62
     7
100
AcDbText
 10
-48.35000047683726
 20
16.08088986588955
 30
0.0
 40
2.6
  1
-0.015
 50
90.0
 41
0.7999999999999997
  7
FDASTYLE0
 72
     5
 11
-48.35000047683726
 21
28.56088986588955
 31
0.0
100
AcDbText
  0
TEXT
  5
139
330
1F
100
AcDbEntity
  8
0
 62
     7
100
AcDbText
 10
-31.04778047683726
 20
16.68088959766865
 30
0.0
 40
4.0
  1
6.6
 41
0.8000000000000002
  7
FDASTYLE0
 72
     5
 11
-21.44778047683726
 21
16.68088959766865
 31
0.0
100
AcDbText
  0
TEXT
  5
13A
330
1F
100
AcDbEntity
  8
0
 62
     7
100
AcDbText
 10
-24.64778047683726
 20
24.68088959766865
 30
0.0
 40
4.0
  1
7
 41
0.7999999999999998
  7
FDASTYLE0
 72
     5
 11
-21.44778047683726
 21
24.68088959766865
 31
0.0
100
AcDbText
  0
TEXT
  5
13B
330
1F
100
AcDbEntity
  8
0
 62
     7
100
AcDbText
 10
-13.55000047683726
 20
24.68088959766865
 30
0.0
 40
4.0
  1
3.6
 41
0.8000000000000002
  7
FDASTYLE0
 72
     5
 11
-3.950000476837257
 21
24.68088959766865
 31
0.0
100
AcDbText
  0
TEXT
  5
13C
330
1F
100
AcDbEntity
  8
0
 62
     7
100
AcDbText
 10
31.14999952316275
 20
16.68088959766865
 30
0.0
 40
4.0
  1
35
 41
0.8000000000000003
  7
FDASTYLE0
 72
     5
 11
37.54999952316275
 21
16.68088959766865
 31
0.0
100
AcDbText
  0
TEXT
  5
13D
330
1F
100
AcDbEntity
  8
0
 62
     7
100
AcDbText
 10
57.85000047683709
 20
16.68088959766865
 30
0.0
 40
4.0
  1
1.2
 41
0.8000000000000002
  7
FDASTYLE0
 72
     5
 11
67.45000047683709
 21
16.68088959766865
 31
0.0
100
AcDbText
  0
TEXT
  5
13E
330
1F
100
AcDbEntity
  8
0
 62
     7
100
AcDbText
 10
16.04999952316275
 20
24.68088959766865
 30
0.0
 40
4.0
  1
58.8
 41
0.7999999999999998
  7
FDASTYLE0
 72
     5
 11
28.84999952316274
 21
24.68088959766865
 31
0.0
100
AcDbText
  0
TEXT
  5
13F
330
1F
100
AcDbEntity
  8
0
 62
     7
100
AcDbText
 10
-92.55000047683726
 20
-15.31911013411045
 30
0.0
 40
4.0
  1
2-Ｍ2（Ｐ＝0.4）ＤＥＰＴＨ　3ＭＡＸ
 41
0.7058823529411765
  7
FDASTYLE0
 72
     5
 11
-25.35000047683725
 21
-15.31911013411045
 31
0.0
100
AcDbText
  0
TEXT
  5
140
330
1F
100
AcDbEntity
  8
0
 62
     7
100
AcDbText
 10
-28.79049865614602
 20
-23.49269021676595
 30
0.0
 40
4.0
  1
NAMEPLATE　LOT№
 41
0.7777777777777778
  7
FDASTYLE0
 72
     5
 11
16.00950134385398
 21
-23.49269021676595
 31
0.0
100
AcDbText
  0
TEXT
  5
141
330
1F
100
AcDbEntity
  8
0
 62
     7
100
AcDbText
 10
53.84507295969032
 20
-15.61895259790878
 30
0.0
 40
4.0
  1
（＋）ＭＡＲＫ
 41
0.6666666666666666
  7
FDASTYLE0
 72
     5
 11
76.24507295969032
 21
-15.61895259790878
 31
0.0
100
AcDbText
  0
INSERT
  5
142
330
1F
100
AcDbEntity
  8
0
  6
CONTINUOUS
100
AcDbBlockReference
  2
DA_IMAGEDIMGROUP_1
 10
0.0
 20
0.0
 30
0.0
  0
INSERT
  5
143
330
1F
100
AcDbEntity
  8
0
  6
CONTINUOUS
100
AcDbBlockReference
  2
DA_IMAGEDIMGROUP_2
 10
0.0
 20
0.0
 30
0.0
  0
INSERT
  5
144
330
1F
100
AcDbEntity
  8
0
  6
CONTINUOUS
100
AcDbBlockReference
  2
DA_IMAGEDIMGROUP_3
 10
0.0
 20
0.0
 30
0.0
  0
INSERT
  5
145
330
1F
100
AcDbEntity
  8
0
  6
CONTINUOUS
100
AcDbBlockReference
  2
DA_IMAGEDIMGROUP_4
 10
0.0
 20
0.0
 30
0.0
  0
INSERT
  5
146
330
1F
100
AcDbEntity
  8
0
  6
CONTINUOUS
100
AcDbBlockReference
  2
DA_IMAGEDIMGROUP_5
 10
0.0
 20
0.0
 30
0.0
  0
VIEWPORT
  5
46
330
1B
100
AcDbEntity
 67
     1
  8
0
100
AcDbViewport
 10
-1.599999999999994
 20
1.000000134110458
 30
0.0
 40
572.7000028610225
 41
178.0853383906746
 68
     1
 69
     1
1001
ACAD
1000
MVIEW
1002
{
1070
    16
1010
0.0
1020
0.0
1030
0.0
1010
0.0
1020
0.0
1030
1.0
1040
0.0
1040
178.0853383906746
1040
-1.599999999999994
1040
1.000000134110458
1040
50.0
1040
0.0
1040
0.0
1070
     0
1070
   100
1070
     0
1070
     1
1070
     0
1070
     0
1070
     0
1070
     0
1040
0.0
1040
0.0
1040
0.0
1040
0.5
1040
0.5
1040
0.0
1040
0.0
1070
     0
1002
{
1002
}
1002
}
  0
ENDSEC
  0
SECTION
  2
OBJECTS
  0
DICTIONARY
  5
C
330
0
100
AcDbDictionary
  3
ACAD_GROUP
350
D
  3
ACAD_LAYOUT
350
1A
  3
ACAD_MLINESTYLE
350
17
  3
ACAD_PLOTSETTINGS
350
19
  3
ACDBHEADERROUNDTRIPXREC
350
147
  0
DICTIONARY
  5
D
102
{ACAD_REACTORS
330
C
102
}
330
C
100
AcDbDictionary
  0
DICTIONARY
  5
1A
102
{ACAD_REACTORS
330
C
102
}
330
C
100
AcDbDictionary
  0
DICTIONARY
  5
17
102
{ACAD_REACTORS
330
C
102
}
330
C
100
AcDbDictionary
  3
STANDARD
350
18
  0
DICTIONARY
  5
19
102
{ACAD_REACTORS
330
C
102
}
330
C
100
AcDbDictionary
  0
DICTIONARY
  5
147
102
{ACAD_REACTORS
330
C
102
}
330
C
100
AcDbDictionary
  3
CEPSNTYPE
350
150
  3
DIMSTYLEDATA
350
166
  3
FINGERPRINTGUID
350
151
  3
HYPERLINKBASE
350
14A
  3
INSUNITS
350
14F
  3
LAYOUTDICT
350
14C
  3
LWETCUNION
350
14E
  3
PLOTSETDICT
350
14D
  3
PSVPSCALE
350
153
  3
PUCSBASE
350
156
  3
PUCSORGBACK
350
15C
  3
PUCSORGBOTTOM
350
158
  3
PUCSORGFRONT
350
15B
  3
PUCSORGLEFT
350
159
  3
PUCSORGRIGHT
350
15A
  3
PUCSORGTOP
350
157
  3
PUCSORTHOREF
350
154
  3
PUCSORTHOVIEW
350
155
  3
STYLESHEET
350
14B
  3
TSTACKALIGN
350
148
  3
TSTACKSIZE
350
149
  3
UCSBASE
350
15F
  3
UCSORGBACK
350
165
  3
UCSORGBOTTOM
350
161
  3
UCSORGFRONT
350
164
  3
UCSORGLEFT
350
162
  3
UCSORGRIGHT
350
163
  3
UCSORGTOP
350
160
  3
UCSORTHOREF
350
15D
  3
UCSORTHOVIEW
350
15E
  3
VERSIONGUID
350
152
  0
MLINESTYLE
  5
18
102
{ACAD_REACTORS
330
17
102
}
330
17
100
AcDbMlineStyle
  2
Standard
 70
     0
  3

 62
   256
 51
90.0
 52
90.0
 71
     2
 49
0.5
 62
   256
  6
BYLAYER
 49
-0.5
 62
   256
  6
BYLAYER
  0
XRECORD
  5
150
102
{ACAD_REACTORS
330
147
102
}
330
147
100
AcDbXrecord
 90
        0
  0
XRECORD
  5
166
102
{ACAD_REACTORS
330
147
102
}
330
147
100
AcDbXrecord
1000
DSTYLE
1002
{
1070
   171
 70
     2
1070
   143
 40
25.4
1070
   274
 70
     2
1070
   141
 40
0.09
1070
   271
 70
     4
1070
    43
 40
0.38
1070
    44
 40
0.18
1070
   278
 70
    46
1070
    42
 40
0.0625
1070
   147
 40
0.09
1070
    77
 70
     3
1070
   272
 70
     4
1070
    73
 70
     1
1070
   172
 70
     0
1070
    74
 70
     1
1070
   283
 70
     1
1070
   340
340
11
1070
   140
 40
0.18
1070
   284
 70
     0
1070
    78
 70
     0
1002
}
  0
XRECORD
  5
151
102
{ACAD_REACTORS
330
147
102
}
330
147
100
AcDbXrecord
  1
{C9F4E071-D313-41B5-98B7-0C87C3206C30}
  0
XRECORD
  5
14A
102
{ACAD_REACTORS
330
147
102
}
330
147
100
AcDbXrecord
  1

  0
XRECORD
  5
14F
102
{ACAD_REACTORS
330
147
102
}
330
147
100
AcDbXrecord
 90
        4
  0
XRECORD
  5
14C
102
{ACAD_REACTORS
330
147
102
}
330
147
100
AcDbXrecord
340
1A
  0
XRECORD
  5
14E
102
{ACAD_REACTORS
330
147
102
}
330
147
100
AcDbXrecord
 90
    10781
  0
XRECORD
  5
14D
102
{ACAD_REACTORS
330
147
102
}
330
147
100
AcDbXrecord
340
19
  0
XRECORD
  5
153
102
{ACAD_REACTORS
330
147
102
}
330
147
100
AcDbXrecord
 40
0.0
  0
XRECORD
  5
156
102
{ACAD_REACTORS
330
147
102
}
330
147
100
AcDbXrecord
340
0
  0
XRECORD
  5
15C
102
{ACAD_REACTORS
330
147
102
}
330
147
100
AcDbXrecord
 10
0.0
 20
0.0
 30
0.0
  0
XRECORD
  5
158
102
{ACAD_REACTORS
330
147
102
}
330
147
100
AcDbXrecord
 10
0.0
 20
0.0
 30
0.0
  0
XRECORD
  5
15B
102
{ACAD_REACTORS
330
147
102
}
330
147
100
AcDbXrecord
 10
0.0
 20
0.0
 30
0.0
  0
XRECORD
  5
159
102
{ACAD_REACTORS
330
147
102
}
330
147
100
AcDbXrecord
 10
0.0
 20
0.0
 30
0.0
  0
XRECORD
  5
15A
102
{ACAD_REACTORS
330
147
102
}
330
147
100
AcDbXrecord
 10
0.0
 20
0.0
 30
0.0
  0
XRECORD
  5
157
102
{ACAD_REACTORS
330
147
102
}
330
147
100
AcDbXrecord
 10
0.0
 20
0.0
 30
0.0
  0
XRECORD
  5
154
102
{ACAD_REACTORS
330
147
102
}
330
147
100
AcDbXrecord
340
0
  0
XRECORD
  5
155
102
{ACAD_REACTORS
330
147
102
}
330
147
100
AcDbXrecord
 70
     0
  0
XRECORD
  5
14B
102
{ACAD_REACTORS
330
147
102
}
330
147
100
AcDbXrecord
  1

  0
XRECORD
  5
148
102
{ACAD_REACTORS
330
147
102
}
330
147
100
AcDbXrecord
 90
        1
  0
XRECORD
  5
149
102
{ACAD_REACTORS
330
147
102
}
330
147
100
AcDbXrecord
 90
       70
  0
XRECORD
  5
15F
102
{ACAD_REACTORS
330
147
102
}
330
147
100
AcDbXrecord
340
0
  0
XRECORD
  5
165
102
{ACAD_REACTORS
330
147
102
}
330
147
100
AcDbXrecord
 10
0.0
 20
0.0
 30
0.0
  0
XRECORD
  5
161
102
{ACAD_REACTORS
330
147
102
}
330
147
100
AcDbXrecord
 10
0.0
 20
0.0
 30
0.0
  0
XRECORD
  5
164
102
{ACAD_REACTORS
330
147
102
}
330
147
100
AcDbXrecord
 10
0.0
 20
0.0
 30
0.0
  0
XRECORD
  5
162
102
{ACAD_REACTORS
330
147
102
}
330
147
100
AcDbXrecord
 10
0.0
 20
0.0
 30
0.0
  0
XRECORD
  5
163
102
{ACAD_REACTORS
330
147
102
}
330
147
100
AcDbXrecord
 10
0.0
 20
0.0
 30
0.0
  0
XRECORD
  5
160
102
{ACAD_REACTORS
330
147
102
}
330
147
100
AcDbXrecord
 10
0.0
 20
0.0
 30
0.0
  0
XRECORD
  5
15D
102
{ACAD_REACTORS
330
147
102
}
330
147
100
AcDbXrecord
340
0
  0
XRECORD
  5
15E
102
{ACAD_REACTORS
330
147
102
}
330
147
100
AcDbXrecord
 70
     0
  0
XRECORD
  5
152
102
{ACAD_REACTORS
330
147
102
}
330
147
100
AcDbXrecord
  1
{FAEB1C32-E019-11D5-929B-00C0DF256EC4}
  0
ENDSEC
  0
EOF
