  0
SECTION
  2
HEADER
  9
$ACADVER
  1
AC1014
  9
$ACADMAINTVER
 70
     9
  9
$DWGCODEPAGE
  3
ANSI_932
  9
$INSBASE
 10
0.0
 20
0.0
 30
0.0
  9
$EXTMIN
 10
-158.1616669073854
 20
-78.25487825000373
 30
0.0
  9
$EXTMAX
 10
171.0609195063483
 20
74.79790710174588
 30
0.0
  9
$LIMMIN
 10
-74.25
 20
-52.5
  9
$LIMMAX
 10
74.25
 20
52.5
  9
$ORTHOMODE
 70
     0
  9
$REGENMODE
 70
     1
  9
$FILLMODE
 70
     1
  9
$QTEXTMODE
 70
     0
  9
$MIRRTEXT
 70
     1
  9
$DRAGMODE
 70
     2
  9
$LTSCALE
 40
0.5
  9
$OSMODE
 70
    37
  9
$ATTMODE
 70
     1
  9
$TEXTSIZE
 40
0.2
  9
$TRACEWID
 40
0.05
  9
$TEXTSTYLE
  7
STANDARD
  9
$CLAYER
  8
0
  9
$CELTYPE
  6
BYLAYER
  9
$CECOLOR
 62
   256
  9
$CELTSCALE
 40
1.0
  9
$DELOBJ
 70
     1
  9
$DISPSILH
 70
     0
  9
$DIMSCALE
 40
1.0
  9
$DIMASZ
 40
1.25
  9
$DIMEXO
 40
0.0625
  9
$DIMDLI
 40
0.38
  9
$DIMRND
 40
0.0
  9
$DIMDLE
 40
0.0
  9
$DIMEXE
 40
0.18
  9
$DIMTP
 40
0.0
  9
$DIMTM
 40
0.0
  9
$DIMTXT
 40
0.18
  9
$DIMCEN
 40
0.09
  9
$DIMTSZ
 40
0.0
  9
$DIMTOL
 70
     0
  9
$DIMLIM
 70
     0
  9
$DIMTIH
 70
     1
  9
$DIMTOH
 70
     1
  9
$DIMSE1
 70
     0
  9
$DIMSE2
 70
     0
  9
$DIMTAD
 70
     3
  9
$DIMZIN
 70
     0
  9
$DIMBLK
  1

  9
$DIMASO
 70
     1
  9
$DIMSHO
 70
     1
  9
$DIMPOST
  1

  9
$DIMAPOST
  1

  9
$DIMALT
 70
     0
  9
$DIMALTD
 70
     2
  9
$DIMALTF
 40
25.4
  9
$DIMLFAC
 40
1.0
  9
$DIMTOFL
 70
     0
  9
$DIMTVP
 40
0.0
  9
$DIMTIX
 70
     0
  9
$DIMSOXD
 70
     0
  9
$DIMSAH
 70
     0
  9
$DIMBLK1
  1

  9
$DIMBLK2
  1

  9
$DIMSTYLE
  2
STANDARD
  9
$DIMCLRD
 70
     0
  9
$DIMCLRE
 70
     0
  9
$DIMCLRT
 70
     0
  9
$DIMTFAC
 40
1.0
  9
$DIMGAP
 40
0.09
  9
$DIMJUST
 70
     0
  9
$DIMSD1
 70
     0
  9
$DIMSD2
 70
     0
  9
$DIMTOLJ
 70
     1
  9
$DIMTZIN
 70
     0
  9
$DIMALTZ
 70
     0
  9
$DIMALTTZ
 70
     0
  9
$DIMFIT
 70
     3
  9
$DIMUPT
 70
     0
  9
$DIMUNIT
 70
     2
  9
$DIMDEC
 70
     4
  9
$DIMTDEC
 70
     4
  9
$DIMALTU
 70
     2
  9
$DIMALTTD
 70
     2
  9
$DIMTXSTY
  7
STANDARD
  9
$DIMAUNIT
 70
     0
  9
$LUNITS
 70
     2
  9
$LUPREC
 70
     4
  9
$SKETCHINC
 40
0.1
  9
$FILLETRAD
 40
0.5
  9
$AUNITS
 70
     0
  9
$AUPREC
 70
     0
  9
$MENU
  1
.
  9
$ELEVATION
 40
0.0
  9
$PELEVATION
 40
0.0
  9
$THICKNESS
 40
0.0
  9
$LIMCHECK
 70
     0
  9
$CHAMFERA
 40
0.5
  9
$CHAMFERB
 40
0.5
  9
$CHAMFERC
 40
1.0
  9
$CHAMFERD
 40
0.0
  9
$SKPOLY
 70
     0
  9
$TDCREATE
 40
2456352.579698287
  9
$TDUPDATE
 40
2456352.579698299
  9
$TDINDWG
 40
0.0000000116
  9
$TDUSRTIMER
 40
0.0000000116
  9
$USRTIMER
 70
     1
  9
$ANGBASE
 50
0.0
  9
$ANGDIR
 70
     0
  9
$PDMODE
 70
     0
  9
$PDSIZE
 40
1.0
  9
$PLINEWID
 40
0.0
  9
$COORDS
 70
     1
  9
$SPLFRAME
 70
     0
  9
$SPLINETYPE
 70
     6
  9
$SPLINESEGS
 70
     8
  9
$ATTDIA
 70
     0
  9
$ATTREQ
 70
     1
  9
$HANDLING
 70
     1
  9
$HANDSEED
  5
1A2
  9
$SURFTAB1
 70
     6
  9
$SURFTAB2
 70
     6
  9
$SURFTYPE
 70
     6
  9
$SURFU
 70
     6
  9
$SURFV
 70
     6
  9
$UCSNAME
  2

  9
$UCSORG
 10
0.0
 20
0.0
 30
0.0
  9
$UCSXDIR
 10
1.0
 20
0.0
 30
0.0
  9
$UCSYDIR
 10
0.0
 20
1.0
 30
0.0
  9
$PUCSNAME
  2

  9
$PUCSORG
 10
0.0
 20
0.0
 30
0.0
  9
$PUCSXDIR
 10
1.0
 20
0.0
 30
0.0
  9
$PUCSYDIR
 10
0.0
 20
1.0
 30
0.0
  9
$USERI1
 70
     0
  9
$USERI2
 70
     0
  9
$USERI3
 70
     0
  9
$USERI4
 70
     0
  9
$USERI5
 70
     0
  9
$USERR1
 40
0.0
  9
$USERR2
 40
0.0
  9
$USERR3
 40
0.0
  9
$USERR4
 40
0.0
  9
$USERR5
 40
0.0
  9
$WORLDVIEW
 70
     1
  9
$SHADEDGE
 70
     3
  9
$SHADEDIF
 70
    70
  9
$TILEMODE
 70
     1
  9
$MAXACTVP
 70
    64
  9
$PINSBASE
 10
0.0
 20
0.0
 30
0.0
  9
$PLIMCHECK
 70
     0
  9
$PEXTMIN
 10
1.000000000000000E+20
 20
1.000000000000000E+20
 30
1.000000000000000E+20
  9
$PEXTMAX
 10
-1.000000000000000E+20
 20
-1.000000000000000E+20
 30
-1.000000000000000E+20
  9
$PLIMMIN
 10
0.0
 20
0.0
  9
$PLIMMAX
 10
12.0
 20
9.0
  9
$UNITMODE
 70
     0
  9
$VISRETAIN
 70
     0
  9
$PLINEGEN
 70
     1
  9
$PSLTSCALE
 70
     0
  9
$TREEDEPTH
 70
  3020
  9
$PICKSTYLE
 70
     1
  9
$CMLSTYLE
  2
STANDARD
  9
$CMLJUST
 70
     0
  9
$CMLSCALE
 40
1.0
  9
$PROXYGRAPHICS
 70
     0
  9
$MEASUREMENT
 70
     1
  0
ENDSEC
  0
SECTION
  2
CLASSES
  0
CLASS
  1
ACDBDICTIONARYWDFLT
  2
AcDbDictionaryWithDefault
  3
ObjectDBX Classes
 90
        0
280
     0
281
     0
  0
CLASS
  1
XRECORD
  2
AcDbXrecord
  3
AutoCAD 2000
 90
        0
280
     0
281
     0
  0
CLASS
  1
LWPOLYLINE
  2
AcDbPolyline
  3
AutoCAD 2000
 90
        0
280
     0
281
     1
  0
CLASS
  1
HATCH
  2
AcDbHatch
  3
AutoCAD 2000
 90
        0
280
     0
281
     1
  0
CLASS
  1
ACDBPLACEHOLDER
  2
AcDbPlaceHolder
  3
ObjectDBX Classes
 90
        0
280
     0
281
     0
  0
CLASS
  1
LAYOUT
  2
AcDbLayout
  3
ObjectDBX Classes
 90
        0
280
     0
281
     0
  0
ENDSEC
  0
SECTION
  2
TABLES
  0
TABLE
  2
VPORT
  5
8
330
0
100
AcDbSymbolTable
 70
     1
  0
VPORT
  5
29
330
8
100
AcDbSymbolTableRecord
100
AcDbViewportTableRecord
  2
*ACTIVE
 70
     0
 10
0.0
 20
0.0
 11
1.0
 21
1.0
 12
0.0
 22
0.0
 13
0.0
 23
0.0
 14
0.5
 24
0.5
 15
0.5
 25
0.5
 16
0.0
 26
0.0
 36
1.0
 17
5.537396989222234
 27
-1.037729309366771
 37
0.0
 40
53.44708979970967
 41
2.002125796252887
 42
50.0
 43
0.0
 44
0.0
 50
0.0
 51
0.0
 71
     0
 72
  1000
 73
     1
 74
     1
 75
     0
 76
     0
 77
     0
 78
     0
  0
ENDTAB
  0
TABLE
  2
LTYPE
  5
5
330
0
100
AcDbSymbolTable
 70
    28
  0
LTYPE
  5
14
330
5
100
AcDbSymbolTableRecord
100
AcDbLinetypeTableRecord
  2
BYBLOCK
 70
     0
  3

 72
    65
 73
     0
 40
0.0
  0
LTYPE
  5
15
330
5
100
AcDbSymbolTableRecord
100
AcDbLinetypeTableRecord
  2
BYLAYER
 70
     0
  3

 72
    65
 73
     0
 40
0.0
  0
LTYPE
  5
16
330
5
100
AcDbSymbolTableRecord
100
AcDbLinetypeTableRecord
  2
CONTINUOUS
 70
     0
  3
Solid line
 72
    65
 73
     0
 40
0.0
  0
LTYPE
  5
2B
330
5
100
AcDbSymbolTableRecord
100
AcDbLinetypeTableRecord
  2
HIDDENX2
 70
     0
  3
CADPAC LINETYPE
 72
    65
 73
     2
 40
4.242424242424249
 49
3.181818181818187
 74
     0
 49
-1.060606060606062
 74
     0
  0
LTYPE
  5
2C
330
5
100
AcDbSymbolTableRecord
100
AcDbLinetypeTableRecord
  2
HIDDEN
 70
     0
  3
CADPAC LINETYPE
 72
    65
 73
     2
 40
3.181818181818187
 49
2.121212121212125
 74
     0
 49
-1.060606060606062
 74
     0
  0
LTYPE
  5
2D
330
5
100
AcDbSymbolTableRecord
100
AcDbLinetypeTableRecord
  2
HIDDEN2
 70
     0
  3
CADPAC LINETYPE
 72
    65
 73
     2
 40
2.651515151515156
 49
1.590909090909094
 74
     0
 49
-1.060606060606062
 74
     0
  0
LTYPE
  5
2E
330
5
100
AcDbSymbolTableRecord
100
AcDbLinetypeTableRecord
  2
DASHED
 70
     0
  3
CADPAC LINETYPE
 72
    65
 73
     2
 40
2.969696969696969
 49
2.121212121212125
 74
     0
 49
-0.8484848484848442
 74
     0
  0
LTYPE
  5
2F
330
5
100
AcDbSymbolTableRecord
100
AcDbLinetypeTableRecord
  2
DASHED2
 70
     0
  3
CADPAC LINETYPE
 72
    65
 73
     2
 40
1.909090909090907
 49
1.272727272727252
 74
     0
 49
-0.6363636363636545
 74
     0
  0
LTYPE
  5
30
330
5
100
AcDbSymbolTableRecord
100
AcDbLinetypeTableRecord
  2
DASHEDX2
 70
     0
  3
CADPAC LINETYPE
 72
    65
 73
     2
 40
5.090909090909065
 49
4.242424242424221
 74
     0
 49
-0.8484848484848442
 74
     0
  0
LTYPE
  5
31
330
5
100
AcDbSymbolTableRecord
100
AcDbLinetypeTableRecord
  2
DOTX2
 70
     0
  3
CADPAC LINETYPE
 72
    65
 73
     2
 40
1.856060606060623
 49
0.0
 74
     0
 49
-1.856060606060623
 74
     0
  0
LTYPE
  5
32
330
5
100
AcDbSymbolTableRecord
100
AcDbLinetypeTableRecord
  2
DOT
 70
     0
  3
CADPAC LINETYPE
 72
    65
 73
     2
 40
1.484848484848499
 49
0.0
 74
     0
 49
-1.484848484848499
 74
     0
  0
LTYPE
  5
33
330
5
100
AcDbSymbolTableRecord
100
AcDbLinetypeTableRecord
  2
DOT2
 70
     0
  3
CADPAC LINETYPE
 72
    65
 73
     2
 40
1.113636363636374
 49
0.0
 74
     0
 49
-1.113636363636374
 74
     0
  0
LTYPE
  5
34
330
5
100
AcDbSymbolTableRecord
100
AcDbLinetypeTableRecord
  2
CENTERX2
 70
     0
  3
CADPAC LINETYPE
 72
    65
 73
     4
 40
6.363636363636374
 49
2.651515151515156
 74
     0
 49
-1.325757575757578
 74
     0
 49
1.060606060606062
 74
     0
 49
-1.325757575757578
 74
     0
  0
LTYPE
  5
35
330
5
100
AcDbSymbolTableRecord
100
AcDbLinetypeTableRecord
  2
CENTER
 70
     0
  3
CADPAC LINETYPE
 72
    65
 73
     4
 40
4.878787878787887
 49
2.121212121212125
 74
     0
 49
-1.060606060606062
 74
     0
 49
0.6363636363636374
 74
     0
 49
-1.060606060606062
 74
     0
  0
LTYPE
  5
36
330
5
100
AcDbSymbolTableRecord
100
AcDbLinetypeTableRecord
  2
CENTER2
 70
     0
  3
CADPAC LINETYPE
 72
    65
 73
     4
 40
3.393939393939399
 49
1.590909090909094
 74
     0
 49
-0.7954545454545468
 74
     0
 49
0.2121212121212125
 74
     0
 49
-0.7954545454545468
 74
     0
  0
LTYPE
  5
37
330
5
100
AcDbSymbolTableRecord
100
AcDbLinetypeTableRecord
  2
DASHDOTX2
 70
     0
  3
CADPAC LINETYPE
 72
    65
 73
     4
 40
10.18181818181816
 49
5.090909090909094
 74
     0
 49
-1.696969696969688
 74
     0
 49
1.696969696969688
 74
     0
 49
-1.696969696969688
 74
     0
  0
LTYPE
  5
38
330
5
100
AcDbSymbolTableRecord
100
AcDbLinetypeTableRecord
  2
DASHDOT
 70
     0
  3
CADPAC LINETYPE
 72
    65
 73
     4
 40
5.090909090909065
 49
2.545454545454533
 74
     0
 49
-0.8484848484848442
 74
     0
 49
0.8484848484848442
 74
     0
 49
-0.8484848484848442
 74
     0
  0
LTYPE
  5
39
330
5
100
AcDbSymbolTableRecord
100
AcDbLinetypeTableRecord
  2
DASHDOT2
 70
     0
  3
CADPAC LINETYPE
 72
    65
 73
     4
 40
3.26666666666665
 49
1.909090909090899
 74
     0
 49
-0.6363636363636331
 74
     0
 49
0.0848484848484844
 74
     0
 49
-0.6363636363636331
 74
     0
  0
LTYPE
  5
3A
330
5
100
AcDbSymbolTableRecord
100
AcDbLinetypeTableRecord
  2
DIVIDEX2
 70
     0
  3
CADPAC LINETYPE
 72
    65
 73
     6
 40
13.57575757575754
 49
5.090909090909094
 74
     0
 49
-1.696969696969688
 74
     0
 49
1.696969696969688
 74
     0
 49
-1.696969696969688
 74
     0
 49
1.696969696969688
 74
     0
 49
-1.696969696969688
 74
     0
  0
LTYPE
  5
3B
330
5
100
AcDbSymbolTableRecord
100
AcDbLinetypeTableRecord
  2
DIVIDE
 70
     0
  3
CADPAC LINETYPE
 72
    65
 73
     6
 40
6.787878787878753
 49
2.545454545454533
 74
     0
 49
-0.8484848484848442
 74
     0
 49
0.8484848484848442
 74
     0
 49
-0.8484848484848442
 74
     0
 49
0.8484848484848442
 74
     0
 49
-0.8484848484848442
 74
     0
  0
LTYPE
  5
3C
330
5
100
AcDbSymbolTableRecord
100
AcDbLinetypeTableRecord
  2
DIVIDE2
 70
     0
  3
CADPAC LINETYPE
 72
    65
 73
     6
 40
5.090909090909065
 49
1.909090909090899
 74
     0
 49
-0.6363636363636331
 74
     0
 49
0.6363636363636331
 74
     0
 49
-0.6363636363636331
 74
     0
 49
0.6363636363636331
 74
     0
 49
-0.6363636363636331
 74
     0
  0
LTYPE
  5
3D
330
5
100
AcDbSymbolTableRecord
100
AcDbLinetypeTableRecord
  2
BORDERX2
 70
     0
  3
CADPAC LINETYPE
 72
    65
 73
     6
 40
9.280303030303045
 49
2.651515151515156
 74
     0
 49
-1.325757575757578
 74
     0
 49
2.651515151515156
 74
     0
 49
-1.325757575757578
 74
     0
 49
0.0
 74
     0
 49
-1.325757575757578
 74
     0
  0
LTYPE
  5
3E
330
5
100
AcDbSymbolTableRecord
100
AcDbLinetypeTableRecord
  2
BORDER
 70
     0
  3
CADPAC LINETYPE
 72
    65
 73
     6
 40
7.424242424242436
 49
2.121212121212125
 74
     0
 49
-1.060606060606062
 74
     0
 49
2.121212121212125
 74
     0
 49
-1.060606060606062
 74
     0
 49
0.0
 74
     0
 49
-1.060606060606062
 74
     0
  0
LTYPE
  5
3F
330
5
100
AcDbSymbolTableRecord
100
AcDbLinetypeTableRecord
  2
BORDER2
 70
     0
  3
CADPAC LINETYPE
 72
    65
 73
     6
 40
5.51515151515153
 49
1.696969696969688
 74
     0
 49
-1.060606060606062
 74
     0
 49
0.6363636363636545
 74
     0
 49
-1.060606060606062
 74
     0
 49
0.0
 74
     0
 49
-1.060606060606062
 74
     0
  0
LTYPE
  5
40
330
5
100
AcDbSymbolTableRecord
100
AcDbLinetypeTableRecord
  2
PHANTOMX2
 70
     0
  3
CADPAC LINETYPE
 72
    65
 73
     6
 40
7.954545454545468
 49
2.651515151515156
 74
     0
 49
-1.060606060606062
 74
     0
 49
1.060606060606062
 74
     0
 49
-1.060606060606062
 74
     0
 49
1.060606060606062
 74
     0
 49
-1.060606060606062
 74
     0
  0
LTYPE
  5
41
330
5
100
AcDbSymbolTableRecord
100
AcDbLinetypeTableRecord
  2
PHANTOM
 70
     0
  3
CADPAC LINETYPE
 72
    65
 73
     6
 40
6.575757575757587
 49
2.121212121212125
 74
     0
 49
-1.060606060606062
 74
     0
 49
0.6363636363636374
 74
     0
 49
-1.060606060606062
 74
     0
 49
0.6363636363636374
 74
     0
 49
-1.060606060606062
 74
     0
  0
LTYPE
  5
42
330
5
100
AcDbSymbolTableRecord
100
AcDbLinetypeTableRecord
  2
PHANTOM2
 70
     0
  3
CADPAC LINETYPE
 72
    65
 73
     6
 40
5.62121212121213
 49
1.590909090909094
 74
     0
 49
-1.060606060606062
 74
     0
 49
0.424242424242425
 74
     0
 49
-1.060606060606062
 74
     0
 49
0.424242424242425
 74
     0
 49
-1.060606060606062
 74
     0
  0
LTYPE
  5
43
330
5
100
AcDbSymbolTableRecord
100
AcDbLinetypeTableRecord
  2
ACAD_ISO06W100
 70
     0
  3
CADPAC LINETYPE
 72
    65
 73
     8
 40
11.24242424242431
 49
5.090909090909094
 74
     0
 49
-1.060606060606062
 74
     0
 49
0.6363636363636545
 74
     0
 49
-1.060606060606062
 74
     0
 49
0.6363636363636545
 74
     0
 49
-1.060606060606062
 74
     0
 49
0.6363636363636545
 74
     0
 49
-1.060606060606062
 74
     0
  0
LTYPE
  5
44
330
5
100
AcDbSymbolTableRecord
100
AcDbLinetypeTableRecord
  2
ACAD_ISO13W100
 70
     0
  3
CADPAC LINETYPE
 72
    65
 73
     8
 40
8.484848484848499
 49
2.121212121212125
 74
     0
 49
-1.060606060606062
 74
     0
 49
2.121212121212125
 74
     0
 49
-1.060606060606062
 74
     0
 49
0.0
 74
     0
 49
-1.060606060606062
 74
     0
 49
0.0
 74
     0
 49
-1.060606060606062
 74
     0
  0
LTYPE
  5
45
330
5
100
AcDbSymbolTableRecord
100
AcDbLinetypeTableRecord
  2
ACAD_ISO14W100
 70
     0
  3
CADPAC LINETYPE
 72
    65
 73
     8
 40
6.363636363636374
 49
2.121212121212125
 74
     0
 49
-1.060606060606062
 74
     0
 49
0.0
 74
     0
 49
-1.060606060606062
 74
     0
 49
0.0
 74
     0
 49
-1.060606060606062
 74
     0
 49
0.0
 74
     0
 49
-1.060606060606062
 74
     0
  0
ENDTAB
  0
TABLE
  2
LAYER
  5
2
330
0
100
AcDbSymbolTable
 70
     7
  0
LAYER
  5
10
330
2
100
AcDbSymbolTableRecord
100
AcDbLayerTableRecord
  2
0
 70
     0
 62
     7
  6
CONTINUOUS
  0
LAYER
  5
46
330
2
100
AcDbSymbolTableRecord
100
AcDbLayerTableRecord
  2
LAYER0001
 70
     0
 62
     7
  6
CONTINUOUS
  0
LAYER
  5
47
330
2
100
AcDbSymbolTableRecord
100
AcDbLayerTableRecord
  2
LAYER0009
 70
     0
 62
     7
  6
CONTINUOUS
  0
LAYER
  5
48
330
2
100
AcDbSymbolTableRecord
100
AcDbLayerTableRecord
  2
LAYER0015
 70
     0
 62
     7
  6
CONTINUOUS
  0
LAYER
  5
49
330
2
100
AcDbSymbolTableRecord
100
AcDbLayerTableRecord
  2
LAYER0032
 70
     0
 62
     7
  6
CONTINUOUS
  0
LAYER
  5
4A
330
2
100
AcDbSymbolTableRecord
100
AcDbLayerTableRecord
  2
LAYER0048
 70
     0
 62
     7
  6
CONTINUOUS
  0
LAYER
  5
4B
330
2
100
AcDbSymbolTableRecord
100
AcDbLayerTableRecord
  2
LAYER0080
 70
     0
 62
     7
  6
CONTINUOUS
  0
ENDTAB
  0
TABLE
  2
STYLE
  5
3
330
0
100
AcDbSymbolTable
 70
     2
  0
STYLE
  5
11
330
3
100
AcDbSymbolTableRecord
100
AcDbTextStyleTableRecord
  2
STANDARD
 70
     0
 40
0.0
 41
1.0
 50
0.0
 71
     0
 42
0.2
  3
txt
  4

  0
STYLE
  5
A7
330
3
100
AcDbSymbolTableRecord
100
AcDbTextStyleTableRecord
  2
FDASTYLE0
 70
     0
 40
2.0
 41
0.8000000000000002
 50
0.0
 71
     0
 42
0.2
  3
txt.shx
  4
bigfont
  0
ENDTAB
  0
TABLE
  2
VIEW
  5
6
330
0
100
AcDbSymbolTable
 70
     0
  0
ENDTAB
  0
TABLE
  2
UCS
  5
7
330
0
100
AcDbSymbolTable
 70
     0
  0
ENDTAB
  0
TABLE
  2
APPID
  5
9
330
0
100
AcDbSymbolTable
 70
     2
  0
APPID
  5
12
330
9
100
AcDbSymbolTableRecord
100
AcDbRegAppTableRecord
  2
ACAD
 70
     0
  0
APPID
  5
2A
330
9
100
AcDbSymbolTableRecord
100
AcDbRegAppTableRecord
  2
DAFUSIONOUT
 70
     0
  0
ENDTAB
  0
TABLE
  2
DIMSTYLE
  5
A
330
0
100
AcDbSymbolTable
 70
     1
  0
DIMSTYLE
105
27
330
A
100
AcDbSymbolTableRecord
100
AcDbDimStyleTableRecord
  2
STANDARD
 70
     0
  3

  4

  5

  6

  7

 40
1.0
 41
0.18
 42
0.0625
 43
0.38
 44
0.18
 45
0.0
 46
0.0
 47
0.0
 48
0.0
140
0.18
141
0.09
142
0.0
143
25.4
144
1.0
145
0.0
146
1.0
147
0.09
 71
     0
 72
     0
 73
     1
 74
     1
 75
     0
 76
     0
 77
     0
 78
     0
170
     0
171
     2
172
     0
173
     0
174
     0
175
     0
176
     0
177
     0
178
     0
270
     2
271
     4
272
     4
273
     2
274
     2
340
11
275
     0
280
     0
281
     0
282
     0
283
     1
284
     0
285
     0
286
     0
287
     3
288
     0
  0
ENDTAB
  0
TABLE
  2
BLOCK_RECORD
  5
1
330
0
100
AcDbSymbolTable
 70
    25
  0
BLOCK_RECORD
  5
1F
330
1
100
AcDbSymbolTableRecord
100
AcDbBlockTableRecord
  2
*MODEL_SPACE
  0
BLOCK_RECORD
  5
1B
330
1
100
AcDbSymbolTableRecord
100
AcDbBlockTableRecord
  2
*PAPER_SPACE
  0
BLOCK_RECORD
  5
4D
330
1
100
AcDbSymbolTableRecord
100
AcDbBlockTableRecord
  2
DC_GROUP_1
  0
BLOCK_RECORD
  5
50
330
1
100
AcDbSymbolTableRecord
100
AcDbBlockTableRecord
  2
DC_GROUP_2
  0
BLOCK_RECORD
  5
53
330
1
100
AcDbSymbolTableRecord
100
AcDbBlockTableRecord
  2
DC_GROUP_3
  0
BLOCK_RECORD
  5
56
330
1
100
AcDbSymbolTableRecord
100
AcDbBlockTableRecord
  2
DC_GROUP_4
  0
BLOCK_RECORD
  5
59
330
1
100
AcDbSymbolTableRecord
100
AcDbBlockTableRecord
  2
DA_IMAGEDIMGROUP_1
  0
BLOCK_RECORD
  5
5C
330
1
100
AcDbSymbolTableRecord
100
AcDbBlockTableRecord
  2
DA_IMAGEDIMGROUP_2
  0
BLOCK_RECORD
  5
5F
330
1
100
AcDbSymbolTableRecord
100
AcDbBlockTableRecord
  2
DA_IMAGEDIMGROUP_3
  0
BLOCK_RECORD
  5
62
330
1
100
AcDbSymbolTableRecord
100
AcDbBlockTableRecord
  2
DA_IMAGEDIMGROUP_4
  0
BLOCK_RECORD
  5
65
330
1
100
AcDbSymbolTableRecord
100
AcDbBlockTableRecord
  2
DA_IMAGEDIMGROUP_5
  0
BLOCK_RECORD
  5
68
330
1
100
AcDbSymbolTableRecord
100
AcDbBlockTableRecord
  2
DA_IMAGEDIMGROUP_6
  0
BLOCK_RECORD
  5
6B
330
1
100
AcDbSymbolTableRecord
100
AcDbBlockTableRecord
  2
DA_IMAGEDIMGROUP_7
  0
BLOCK_RECORD
  5
6E
330
1
100
AcDbSymbolTableRecord
100
AcDbBlockTableRecord
  2
DC_GROUP_5
  0
BLOCK_RECORD
  5
71
330
1
100
AcDbSymbolTableRecord
100
AcDbBlockTableRecord
  2
DA_IMAGEDIMGROUP_8
  0
BLOCK_RECORD
  5
74
330
1
100
AcDbSymbolTableRecord
100
AcDbBlockTableRecord
  2
DA_IMAGEDIMGROUP_9
  0
BLOCK_RECORD
  5
77
330
1
100
AcDbSymbolTableRecord
100
AcDbBlockTableRecord
  2
DA_IMAGEDIMGROUP_10
  0
BLOCK_RECORD
  5
7A
330
1
100
AcDbSymbolTableRecord
100
AcDbBlockTableRecord
  2
DA_IMAGEDIMGROUP_11
  0
BLOCK_RECORD
  5
7D
330
1
100
AcDbSymbolTableRecord
100
AcDbBlockTableRecord
  2
DC_GROUP_6
  0
BLOCK_RECORD
  5
80
330
1
100
AcDbSymbolTableRecord
100
AcDbBlockTableRecord
  2
DC_GROUP_7
  0
BLOCK_RECORD
  5
83
330
1
100
AcDbSymbolTableRecord
100
AcDbBlockTableRecord
  2
DA_IMAGEDIMGROUP_12
  0
BLOCK_RECORD
  5
86
330
1
100
AcDbSymbolTableRecord
100
AcDbBlockTableRecord
  2
DA_IMAGEDIMGROUP_13
  0
BLOCK_RECORD
  5
89
330
1
100
AcDbSymbolTableRecord
100
AcDbBlockTableRecord
  2
DA_IMAGEDIMGROUP_14
  0
BLOCK_RECORD
  5
8C
330
1
100
AcDbSymbolTableRecord
100
AcDbBlockTableRecord
  2
DC_GROUP_8
  0
BLOCK_RECORD
  5
8F
330
1
100
AcDbSymbolTableRecord
100
AcDbBlockTableRecord
  2
DC_GROUP_9
  0
BLOCK_RECORD
  5
9E
330
1
100
AcDbSymbolTableRecord
100
AcDbBlockTableRecord
  2
_OPEN30
  0
ENDTAB
  0
ENDSEC
  0
SECTION
  2
BLOCKS
  0
BLOCK
  5
20
330
1F
100
AcDbEntity
  8
0
100
AcDbBlockBegin
  2
*MODEL_SPACE
 70
     0
 71
     0
 10
0.0
 20
0.0
 30
0.0
  3
*MODEL_SPACE
  1

  0
ENDBLK
  5
21
330
1F
100
AcDbEntity
  8
0
100
AcDbBlockEnd
  0
BLOCK
  5
1C
330
1B
100
AcDbEntity
 67
     1
  8
0
100
AcDbBlockBegin
  2
*PAPER_SPACE
 70
     0
 71
     0
 10
0.0
 20
0.0
 30
0.0
  3
*PAPER_SPACE
  1

  0
ENDBLK
  5
1D
330
1B
100
AcDbEntity
 67
     1
  8
0
100
AcDbBlockEnd
  0
BLOCK
  5
4E
330
4D
100
AcDbEntity
  8
0
100
AcDbBlockBegin
  2
DC_GROUP_1
 70
     0
 71
     0
 10
0.0
 20
0.0
 30
0.0
  3
DC_GROUP_1
  1

  0
CIRCLE
  5
92
330
4D
100
AcDbEntity
  8
0
  6
CONTINUOUS
 62
     3
100
AcDbCircle
 10
-39.47081610477929
 20
8.404465201139594
 30
0.0
 40
0.7849999999999966
  0
CIRCLE
  5
93
330
4D
100
AcDbEntity
  8
0
  6
CONTINUOUS
 62
     9
100
AcDbCircle
 10
-39.47081610477929
 20
8.404465201139594
 30
0.0
 40
1.0
  0
ENDBLK
  5
4F
330
4D
100
AcDbEntity
  8
0
100
AcDbBlockEnd
  0
BLOCK
  5
51
330
50
100
AcDbEntity
  8
0
100
AcDbBlockBegin
  2
DC_GROUP_2
 70
     0
 71
     0
 10
0.0
 20
0.0
 30
0.0
  3
DC_GROUP_2
  1

  0
CIRCLE
  5
94
330
50
100
AcDbEntity
  8
0
  6
CONTINUOUS
 62
     3
100
AcDbCircle
 10
-39.47081610477929
 20
-0.0808161730989738
 30
0.0
 40
0.7849999999999966
  0
CIRCLE
  5
95
330
50
100
AcDbEntity
  8
0
  6
CONTINUOUS
 62
     9
100
AcDbCircle
 10
-39.47081610477929
 20
-0.0808161730989738
 30
0.0
 40
1.0
  0
ENDBLK
  5
52
330
50
100
AcDbEntity
  8
0
100
AcDbBlockEnd
  0
BLOCK
  5
54
330
53
100
AcDbEntity
  8
0
100
AcDbBlockBegin
  2
DC_GROUP_3
 70
     0
 71
     0
 10
0.0
 20
0.0
 30
0.0
  3
DC_GROUP_3
  1

  0
CIRCLE
  5
96
330
53
100
AcDbEntity
  8
0
  6
CONTINUOUS
 62
     3
100
AcDbCircle
 10
-30.98553473054072
 20
-0.0808161730989738
 30
0.0
 40
0.7849999999999966
  0
CIRCLE
  5
97
330
53
100
AcDbEntity
  8
0
  6
CONTINUOUS
 62
     9
100
AcDbCircle
 10
-30.98553473054072
 20
-0.0808161730989738
 30
0.0
 40
1.0
  0
ENDBLK
  5
55
330
53
100
AcDbEntity
  8
0
100
AcDbBlockEnd
  0
BLOCK
  5
57
330
56
100
AcDbEntity
  8
0
100
AcDbBlockBegin
  2
DC_GROUP_4
 70
     0
 71
     0
 10
0.0
 20
0.0
 30
0.0
  3
DC_GROUP_4
  1

  0
CIRCLE
  5
98
330
56
100
AcDbEntity
  8
0
  6
CONTINUOUS
 62
     3
100
AcDbCircle
 10
-30.98553473054072
 20
8.404465201139594
 30
0.0
 40
0.7849999999999966
  0
CIRCLE
  5
99
330
56
100
AcDbEntity
  8
0
  6
CONTINUOUS
 62
     9
100
AcDbCircle
 10
-30.98553473054072
 20
8.404465201139594
 30
0.0
 40
1.0
  0
ENDBLK
  5
58
330
56
100
AcDbEntity
  8
0
100
AcDbBlockEnd
  0
BLOCK
  5
5A
330
59
100
AcDbEntity
  8
0
100
AcDbBlockBegin
  2
DA_IMAGEDIMGROUP_1
 70
     0
 71
     0
 10
0.0
 20
0.0
 30
0.0
  3
DA_IMAGEDIMGROUP_1
  1

  0
LINE
  5
9A
330
59
100
AcDbEntity
  8
LAYER0080
  6
CONTINUOUS
 62
     9
100
AcDbLine
 10
-7.09549929822958
 20
5.66182451402031
 30
0.0
 11
-9.59549929822958
 21
5.66182451402031
 31
0.0
  0
LINE
  5
9B
330
59
100
AcDbEntity
  8
LAYER0080
  6
CONTINUOUS
 62
     9
100
AcDbLine
 10
-7.09549929822958
 20
2.16182451402031
 30
0.0
 11
-9.59549929822958
 21
2.16182451402031
 31
0.0
  0
LINE
  5
9C
330
59
100
AcDbEntity
  8
LAYER0080
  6
CONTINUOUS
 62
     9
100
AcDbLine
 10
-9.09549929822958
 20
2.16182451402031
 30
0.0
 11
-9.09549929822958
 21
5.66182451402031
 31
0.0
  0
LINE
  5
9D
330
59
100
AcDbEntity
  8
LAYER0080
  6
CONTINUOUS
 62
     9
100
AcDbLine
 10
-9.09549929822958
 20
17.98748646512861
 30
0.0
 11
-9.09549929822958
 21
5.66182451402031
 31
0.0
  0
INSERT
  5
A4
330
59
100
AcDbEntity
  8
LAYER0080
 62
     9
100
AcDbBlockReference
  2
_OPEN30
 10
-9.09549929822958
 20
5.66182451402031
 30
0.0
 41
1.500001393912182
 42
1.499994636989232
 50
270.0
  0
LINE
  5
A5
330
59
100
AcDbEntity
  8
LAYER0080
  6
CONTINUOUS
 62
     9
100
AcDbLine
 10
-9.09549929822958
 20
-0.3381754859796864
 30
0.0
 11
-9.09549929822958
 21
2.16182451402031
 31
0.0
  0
INSERT
  5
A6
330
59
100
AcDbEntity
  8
LAYER0080
 62
     9
100
AcDbBlockReference
  2
_OPEN30
 10
-9.09549929822958
 20
2.16182451402031
 30
0.0
 41
1.500001393912182
 42
1.499994636989232
 50
90.0
  0
TEXT
  5
A8
330
59
100
AcDbEntity
  8
LAYER0080
 62
     7
100
AcDbText
 10
-9.59549929822958
 20
8.755486465128607
 30
0.0
 40
2.0
  1
3.5
 50
90.0
 41
0.8000000000000002
  7
FDASTYLE0
 72
     5
 11
-9.59549929822958
 21
13.55548646512861
 31
0.0
100
AcDbText
  0
TEXT
  5
A9
330
59
100
AcDbEntity
  8
LAYER0080
 62
     7
100
AcDbText
 10
-10.89549929822958
 20
14.05548646512861
 30
0.0
 40
1.3
  1
±0.1
 50
90.0
 41
0.7619047619047615
  7
FDASTYLE0
 72
     5
 11
-10.89549929822958
 21
18.21548646512861
 31
0.0
100
AcDbText
  0
ENDBLK
  5
5B
330
59
100
AcDbEntity
  8
0
100
AcDbBlockEnd
  0
BLOCK
  5
5D
330
5C
100
AcDbEntity
  8
0
100
AcDbBlockBegin
  2
DA_IMAGEDIMGROUP_2
 70
     0
 71
     0
 10
0.0
 20
0.0
 30
0.0
  3
DA_IMAGEDIMGROUP_2
  1

  0
LINE
  5
AA
330
5C
100
AcDbEntity
  8
LAYER0080
  6
CONTINUOUS
 62
     9
100
AcDbLine
 10
-7.09549929822958
 20
2.16182451402031
 30
0.0
 11
-14.59549929822958
 21
2.16182451402031
 31
0.0
  0
LINE
  5
AB
330
5C
100
AcDbEntity
  8
LAYER0080
  6
CONTINUOUS
 62
     9
100
AcDbLine
 10
-0.5954992982295808
 20
6.161824514020317
 30
0.0
 11
-14.59549929822958
 21
6.161824514020317
 31
0.0
  0
LINE
  5
AC
330
5C
100
AcDbEntity
  8
LAYER0080
  6
CONTINUOUS
 62
     9
100
AcDbLine
 10
-14.09549929822958
 20
6.161824514020317
 30
0.0
 11
-14.09549929822958
 21
2.16182451402031
 31
0.0
  0
LINE
  5
AD
330
5C
100
AcDbEntity
  8
LAYER0080
  6
CONTINUOUS
 62
     9
100
AcDbLine
 10
-14.09549929822958
 20
17.24548646512861
 30
0.0
 11
-14.09549929822958
 21
6.161824514020317
 31
0.0
  0
INSERT
  5
AE
330
5C
100
AcDbEntity
  8
LAYER0080
 62
     9
100
AcDbBlockReference
  2
_OPEN30
 10
-14.09549929822958
 20
6.161824514020317
 30
0.0
 41
1.500001393912182
 42
1.499994636989232
 50
270.0
  0
LINE
  5
AF
330
5C
100
AcDbEntity
  8
LAYER0080
  6
CONTINUOUS
 62
     9
100
AcDbLine
 10
-14.09549929822958
 20
-0.3381754859796864
 30
0.0
 11
-14.09549929822958
 21
2.16182451402031
 31
0.0
  0
INSERT
  5
B0
330
5C
100
AcDbEntity
  8
LAYER0080
 62
     9
100
AcDbBlockReference
  2
_OPEN30
 10
-14.09549929822958
 20
2.16182451402031
 30
0.0
 41
1.500001393912182
 42
1.499994636989232
 50
90.0
  0
TEXT
  5
B1
330
5C
100
AcDbEntity
  8
LAYER0080
 62
     7
100
AcDbText
 10
-14.59549929822958
 20
8.755486465128607
 30
0.0
 40
2.0
  1
φ4
 50
90.0
 41
0.7272727272727271
  7
FDASTYLE0
 72
     5
 11
-14.59549929822958
 21
11.95548646512861
 31
0.0
100
AcDbText
  0
TEXT
  5
B2
330
5C
100
AcDbEntity
  8
LAYER0080
 62
     7
100
AcDbText
 10
-15.89549929822958
 20
12.45548646512861
 30
0.0
 40
1.3
  1
 0
 50
90.0
 41
0.8
  7
FDASTYLE0
 72
     5
 11
-15.89549929822958
 21
14.53548646512861
 31
0.0
100
AcDbText
  0
TEXT
  5
B3
330
5C
100
AcDbEntity
  8
LAYER0080
 62
     7
100
AcDbText
 10
-14.49549929822958
 20
12.45548646512861
 30
0.0
 40
1.3
  1
-0.02
 50
90.0
 41
0.7999999999999996
  7
FDASTYLE0
 72
     5
 11
-14.49549929822958
 21
17.6554864651286
 31
0.0
100
AcDbText
  0
ENDBLK
  5
5E
330
5C
100
AcDbEntity
  8
0
100
AcDbBlockEnd
  0
BLOCK
  5
60
330
5F
100
AcDbEntity
  8
0
100
AcDbBlockBegin
  2
DA_IMAGEDIMGROUP_3
 70
     0
 71
     0
 10
0.0
 20
0.0
 30
0.0
  3
DA_IMAGEDIMGROUP_3
  1

  0
LINE
  5
B4
330
5F
100
AcDbEntity
  8
0
  6
CONTINUOUS
 62
     9
100
AcDbLine
 10
36.70450070177039
 20
-3.438175485979684
 30
0.0
 11
36.70450070177039
 21
-17.33817548597968
 31
0.0
  0
LINE
  5
B5
330
5F
100
AcDbEntity
  8
0
  6
CONTINUOUS
 62
     9
100
AcDbLine
 10
29.50450070177036
 20
1.051824514020305
 30
0.0
 11
29.50450070177036
 21
-17.33817548597968
 31
0.0
  0
LINE
  5
B6
330
5F
100
AcDbEntity
  8
0
  6
CONTINUOUS
 62
     9
100
AcDbLine
 10
36.70450070177039
 20
-16.83817548597968
 30
0.0
 11
29.50450070177036
 21
-16.83817548597968
 31
0.0
  0
LINE
  5
B7
330
5F
100
AcDbEntity
  8
0
  6
CONTINUOUS
 62
     9
100
AcDbLine
 10
50.21339070177039
 20
-16.83817548597968
 30
0.0
 11
36.70450070177039
 21
-16.83817548597968
 31
0.0
  0
INSERT
  5
B8
330
5F
100
AcDbEntity
  8
0
 62
     9
100
AcDbBlockReference
  2
_OPEN30
 10
36.70450070177039
 20
-16.83817548597968
 30
0.0
 41
1.500001393912182
 42
1.499994636989232
 50
180.0
  0
LINE
  5
B9
330
5F
100
AcDbEntity
  8
0
  6
CONTINUOUS
 62
     9
100
AcDbLine
 10
27.00450070177036
 20
-16.83817548597968
 30
0.0
 11
29.50450070177036
 21
-16.83817548597968
 31
0.0
  0
INSERT
  5
BA
330
5F
100
AcDbEntity
  8
0
 62
     9
100
AcDbBlockReference
  2
_OPEN30
 10
29.50450070177036
 20
-16.83817548597968
 30
0.0
 41
1.500001393912182
 42
1.499994636989232
 50
360.0
  0
TEXT
  5
BB
330
5F
100
AcDbEntity
  8
0
 62
     7
100
AcDbText
 10
38.65339070177039
 20
-16.33817548597968
 30
0.0
 40
2.0
  1
※7.2
 41
0.7619047619047618
  7
FDASTYLE0
 72
     5
 11
45.05339070177039
 21
-16.33817548597968
 31
0.0
100
AcDbText
  0
TEXT
  5
BC
330
5F
100
AcDbEntity
  8
0
 62
     7
100
AcDbText
 10
45.55339070177039
 20
-15.03817548597968
 30
0.0
 40
1.3
  1
±0.1
 41
0.7619047619047624
  7
FDASTYLE0
 72
     5
 11
49.71339070177039
 21
-15.03817548597968
 31
0.0
100
AcDbText
  0
ENDBLK
  5
61
330
5F
100
AcDbEntity
  8
0
100
AcDbBlockEnd
  0
BLOCK
  5
63
330
62
100
AcDbEntity
  8
0
100
AcDbBlockBegin
  2
DA_IMAGEDIMGROUP_4
 70
     0
 71
     0
 10
0.0
 20
0.0
 30
0.0
  3
DA_IMAGEDIMGROUP_4
  1

  0
LINE
  5
BD
330
62
100
AcDbEntity
  8
0
  6
CONTINUOUS
 62
     9
100
AcDbLine
 10
-6.59549929822958
 20
1.66182451402031
 30
0.0
 11
-6.59549929822958
 21
-6.838175485979686
 31
0.0
  0
LINE
  5
BE
330
62
100
AcDbEntity
  8
0
  6
CONTINUOUS
 62
     9
100
AcDbLine
 10
-0.0954992982295808
 20
5.16182451402031
 30
0.0
 11
-0.0954992982295808
 21
-6.838175485979686
 31
0.0
  0
LINE
  5
BF
330
62
100
AcDbEntity
  8
0
  6
CONTINUOUS
 62
     9
100
AcDbLine
 10
-6.59549929822958
 20
-6.338175485979686
 30
0.0
 11
-0.0954992982295808
 21
-6.338175485979686
 31
0.0
  0
INSERT
  5
C0
330
62
100
AcDbEntity
  8
0
 62
     9
100
AcDbBlockReference
  2
_OPEN30
 10
-6.59549929822958
 20
-6.338175485979686
 30
0.0
 41
1.500001393912182
 42
1.499994636989232
 50
180.0
  0
INSERT
  5
C1
330
62
100
AcDbEntity
  8
0
 62
     9
100
AcDbBlockReference
  2
_OPEN30
 10
-0.0954992982295808
 20
-6.338175485979686
 30
0.0
 41
1.500001393912182
 42
1.499994636989232
 50
360.0
  0
TEXT
  5
C2
330
62
100
AcDbEntity
  8
0
 62
     7
100
AcDbText
 10
-5.745499298229581
 20
-5.838175485979686
 30
0.0
 40
2.0
  1
6.5
 41
0.8000000000000002
  7
FDASTYLE0
 72
     5
 11
-0.9454992982295805
 21
-5.838175485979686
 31
0.0
100
AcDbText
  0
ENDBLK
  5
64
330
62
100
AcDbEntity
  8
0
100
AcDbBlockEnd
  0
BLOCK
  5
66
330
65
100
AcDbEntity
  8
0
100
AcDbBlockBegin
  2
DA_IMAGEDIMGROUP_5
 70
     0
 71
     0
 10
0.0
 20
0.0
 30
0.0
  3
DA_IMAGEDIMGROUP_5
  1

  0
LINE
  5
C3
330
65
100
AcDbEntity
  8
0
  6
CONTINUOUS
 62
     9
100
AcDbLine
 10
2.904500701770412
 20
8.581824514020319
 30
0.0
 11
2.904500701770412
 21
15.16182451402032
 31
0.0
  0
LINE
  5
C4
330
65
100
AcDbEntity
  8
0
  6
CONTINUOUS
 62
     9
100
AcDbLine
 10
3.904500701770419
 20
12.36182451402032
 30
0.0
 11
3.904500701770419
 21
15.16182451402032
 31
0.0
  0
LINE
  5
C5
330
65
100
AcDbEntity
  8
0
  6
CONTINUOUS
 62
     9
100
AcDbLine
 10
2.904500701770412
 20
14.66182451402032
 30
0.0
 11
3.904500701770419
 21
14.66182451402032
 31
0.0
  0
LINE
  5
C6
330
65
100
AcDbEntity
  8
0
  6
CONTINUOUS
 62
     9
100
AcDbLine
 10
6.451886607605226
 20
14.66182451402032
 30
0.0
 11
3.904500701770419
 21
14.66182451402032
 31
0.0
  0
INSERT
  5
C7
330
65
100
AcDbEntity
  8
0
 62
     9
100
AcDbBlockReference
  2
_OPEN30
 10
3.904500701770419
 20
14.66182451402032
 30
0.0
 41
1.500001393912182
 42
1.499994636989232
 50
180.0
  0
LINE
  5
C8
330
65
100
AcDbEntity
  8
0
  6
CONTINUOUS
 62
     9
100
AcDbLine
 10
-2.978203594071447
 20
14.66182451402032
 30
0.0
 11
2.904500701770412
 21
14.66182451402032
 31
0.0
  0
INSERT
  5
C9
330
65
100
AcDbEntity
  8
0
 62
     9
100
AcDbBlockReference
  2
_OPEN30
 10
2.904500701770412
 20
14.66182451402032
 30
0.0
 41
1.500001393912182
 42
1.499994636989232
 50
360.0
  0
TEXT
  5
CA
330
65
100
AcDbEntity
  8
0
 62
     7
100
AcDbText
 10
-2.657190592154049
 20
15.16182451402032
 30
0.0
 40
2.0
  1
1
 41
0.8
  7
FDASTYLE0
 72
     5
 11
-1.057190592154049
 21
15.16182451402032
 31
0.0
100
AcDbText
  0
ENDBLK
  5
67
330
65
100
AcDbEntity
  8
0
100
AcDbBlockEnd
  0
BLOCK
  5
69
330
68
100
AcDbEntity
  8
0
100
AcDbBlockBegin
  2
DA_IMAGEDIMGROUP_6
 70
     0
 71
     0
 10
0.0
 20
0.0
 30
0.0
  3
DA_IMAGEDIMGROUP_6
  1

  0
LINE
  5
CB
330
68
100
AcDbEntity
  8
0
  6
CONTINUOUS
 62
     9
100
AcDbLine
 10
0.3045007017704036
 20
8.161824514020317
 30
0.0
 11
0.3045007017704036
 21
19.16182451402032
 31
0.0
  0
LINE
  5
CC
330
68
100
AcDbEntity
  8
0
  6
CONTINUOUS
 62
     9
100
AcDbLine
 10
3.904500701770419
 20
12.36182451402032
 30
0.0
 11
3.904500701770419
 21
19.16182451402032
 31
0.0
  0
LINE
  5
CD
330
68
100
AcDbEntity
  8
0
  6
CONTINUOUS
 62
     9
100
AcDbLine
 10
0.3045007017704036
 20
18.66182451402032
 30
0.0
 11
3.904500701770419
 21
18.66182451402032
 31
0.0
  0
LINE
  5
CE
330
68
100
AcDbEntity
  8
0
  6
CONTINUOUS
 62
     9
100
AcDbLine
 10
6.451886607605226
 20
18.66182451402032
 30
0.0
 11
3.904500701770419
 21
18.66182451402032
 31
0.0
  0
INSERT
  5
CF
330
68
100
AcDbEntity
  8
0
 62
     9
100
AcDbBlockReference
  2
_OPEN30
 10
3.904500701770419
 20
18.66182451402032
 30
0.0
 41
1.500001393912182
 42
1.499994636989232
 50
180.0
  0
LINE
  5
D0
330
68
100
AcDbEntity
  8
0
  6
CONTINUOUS
 62
     9
100
AcDbLine
 10
-6.023271192845434
 20
18.66182451402032
 30
0.0
 11
0.3045007017704036
 21
18.66182451402032
 31
0.0
  0
INSERT
  5
D1
330
68
100
AcDbEntity
  8
0
 62
     9
100
AcDbBlockReference
  2
_OPEN30
 10
0.3045007017704036
 20
18.66182451402032
 30
0.0
 41
1.500001393912182
 42
1.499994636989232
 50
360.0
  0
TEXT
  5
D2
330
68
100
AcDbEntity
  8
0
 62
     7
100
AcDbText
 10
-5.72191965077888
 20
19.16182451402032
 30
0.0
 40
2.0
  1
3.6
 41
0.8000000000000002
  7
FDASTYLE0
 72
     5
 11
-0.9219196507788796
 21
19.16182451402032
 31
0.0
100
AcDbText
  0
ENDBLK
  5
6A
330
68
100
AcDbEntity
  8
0
100
AcDbBlockEnd
  0
BLOCK
  5
6C
330
6B
100
AcDbEntity
  8
0
100
AcDbBlockBegin
  2
DA_IMAGEDIMGROUP_7
 70
     0
 71
     0
 10
0.0
 20
0.0
 30
0.0
  3
DA_IMAGEDIMGROUP_7
  1

  0
LINE
  5
D3
330
6B
100
AcDbEntity
  8
0
  6
CONTINUOUS
 62
     9
100
AcDbLine
 10
37.00450070177043
 20
-3.838175485979683
 30
0.0
 11
47.70450070177039
 21
-3.838175485979683
 31
0.0
  0
LINE
  5
D4
330
6B
100
AcDbEntity
  8
0
  6
CONTINUOUS
 62
     9
100
AcDbLine
 10
37.00450070177043
 20
12.1618245140203
 30
0.0
 11
47.70450070177039
 21
12.1618245140203
 31
0.0
  0
LINE
  5
D5
330
6B
100
AcDbEntity
  8
0
  6
CONTINUOUS
 62
     9
100
AcDbLine
 10
47.20450070177039
 20
-3.838175485979683
 30
0.0
 11
47.20450070177039
 21
12.1618245140203
 31
0.0
  0
INSERT
  5
D6
330
6B
100
AcDbEntity
  8
0
 62
     9
100
AcDbBlockReference
  2
_OPEN30
 10
47.20450070177039
 20
-3.838175485979683
 30
0.0
 41
1.500001393912182
 42
1.499994636989232
 50
270.0
  0
INSERT
  5
D7
330
6B
100
AcDbEntity
  8
0
 62
     9
100
AcDbBlockReference
  2
_OPEN30
 10
47.20450070177039
 20
12.1618245140203
 30
0.0
 41
1.500001393912182
 42
1.499994636989232
 50
90.0
  0
TEXT
  5
D8
330
6B
100
AcDbEntity
  8
0
 62
     7
100
AcDbText
 10
46.70450070177039
 20
-0.2041754859796887
 30
0.0
 40
2.0
  1
φ16
 50
90.0
 41
0.7499999999999996
  7
FDASTYLE0
 72
     5
 11
46.70450070177039
 21
4.595824514020308
 31
0.0
100
AcDbText
  0
TEXT
  5
D9
330
6B
100
AcDbEntity
  8
0
 62
     7
100
AcDbText
 10
45.4045007017704
 20
5.095824514020308
 30
0.0
 40
1.3
  1
 0
 50
90.0
 41
0.7999999999999993
  7
FDASTYLE0
 72
     5
 11
45.4045007017704
 21
7.175824514020307
 31
0.0
100
AcDbText
  0
TEXT
  5
DA
330
6B
100
AcDbEntity
  8
0
 62
     7
100
AcDbText
 10
46.80450070177039
 20
5.095824514020308
 30
0.0
 40
1.3
  1
-0.2
 50
90.0
 41
0.7999999999999992
  7
FDASTYLE0
 72
     5
 11
46.80450070177039
 21
9.255824514020304
 31
0.0
100
AcDbText
  0
ENDBLK
  5
6D
330
6B
100
AcDbEntity
  8
0
100
AcDbBlockEnd
  0
BLOCK
  5
6F
330
6E
100
AcDbEntity
  8
0
100
AcDbBlockBegin
  2
DC_GROUP_5
 70
     0
 71
     0
 10
0.0
 20
0.0
 30
0.0
  3
DC_GROUP_5
  1

  0
LINE
  5
DB
330
6E
100
AcDbEntity
  8
LAYER0015
  6
DASHED2
 62
     9
100
AcDbLine
 10
34.10450069254191
 20
11.61182450479189
 30
0.0
 11
35.50450069254188
 21
11.61182450479189
 31
0.0
  0
LINE
  5
DC
330
6E
100
AcDbEntity
  8
LAYER0015
  6
DASHED2
 62
     9
100
AcDbLine
 10
34.10450070177032
 20
9.061824504791908
 30
0.0
 11
34.10450070177032
 21
11.61182450479189
 31
0.0
  0
LINE
  5
DD
330
6E
100
AcDbEntity
  8
LAYER0015
  6
DASHED2
 62
     9
100
AcDbLine
 10
35.50450068331345
 20
9.061824504791908
 30
0.0
 11
35.50450068331345
 21
11.61182450479189
 31
0.0
  0
LINE
  5
DE
330
6E
100
AcDbEntity
  8
LAYER0015
  6
DASHED2
 62
     9
100
AcDbLine
 10
35.50450069254188
 20
9.061824504791908
 30
0.0
 11
34.10450069254191
 21
9.061824504791908
 31
0.0
  0
LINE
  5
DF
330
6E
100
AcDbEntity
  8
LAYER0015
  6
DASHED2
 62
     9
100
AcDbLine
 10
35.95450069254191
 20
12.06182450479191
 30
0.0
 11
33.6545007109987
 21
12.06182450479191
 31
0.0
  0
ENDBLK
  5
70
330
6E
100
AcDbEntity
  8
0
100
AcDbBlockEnd
  0
BLOCK
  5
72
330
71
100
AcDbEntity
  8
0
100
AcDbBlockBegin
  2
DA_IMAGEDIMGROUP_8
 70
     0
 71
     0
 10
0.0
 20
0.0
 30
0.0
  3
DA_IMAGEDIMGROUP_8
  1

  0
LINE
  5
E0
330
71
100
AcDbEntity
  8
0
  6
CONTINUOUS
 62
     9
100
AcDbLine
 10
36.70450070177039
 20
-3.63817548597968
 30
0.0
 11
36.70450070177039
 21
-9.338175485979683
 31
0.0
  0
LINE
  5
E1
330
71
100
AcDbEntity
  8
0
  6
CONTINUOUS
 62
     9
100
AcDbLine
 10
34.80450070177032
 20
8.061824504791908
 30
0.0
 11
34.80450070177032
 21
-9.338175485979683
 31
0.0
  0
LINE
  5
E2
330
71
100
AcDbEntity
  8
0
  6
CONTINUOUS
 62
     9
100
AcDbLine
 10
34.80450070177032
 20
-8.838175485979683
 30
0.0
 11
36.70450070177039
 21
-8.838175485979683
 31
0.0
  0
LINE
  5
E3
330
71
100
AcDbEntity
  8
0
  6
CONTINUOUS
 62
     9
100
AcDbLine
 10
51.25339070177039
 20
-8.838175485979683
 30
0.0
 11
36.70450070177039
 21
-8.838175485979683
 31
0.0
  0
INSERT
  5
E4
330
71
100
AcDbEntity
  8
0
 62
     9
100
AcDbBlockReference
  2
_OPEN30
 10
36.70450070177039
 20
-8.838175485979683
 30
0.0
 41
1.500001393912182
 42
1.499994636989232
 50
180.0
  0
LINE
  5
E5
330
71
100
AcDbEntity
  8
0
  6
CONTINUOUS
 62
     9
100
AcDbLine
 10
32.30450070177032
 20
-8.838175485979683
 30
0.0
 11
34.80450070177032
 21
-8.838175485979683
 31
0.0
  0
INSERT
  5
E6
330
71
100
AcDbEntity
  8
0
 62
     9
100
AcDbBlockReference
  2
_OPEN30
 10
34.80450070177032
 20
-8.838175485979683
 30
0.0
 41
1.500001393912182
 42
1.499994636989232
 50
360.0
  0
TEXT
  5
E7
330
71
100
AcDbEntity
  8
0
 62
     7
100
AcDbText
 10
38.65339070177039
 20
-8.338175485979683
 30
0.0
 40
2.0
  1
※1.9
 41
0.7619047619047618
  7
FDASTYLE0
 72
     5
 11
45.05339070177039
 21
-8.338175485979683
 31
0.0
100
AcDbText
  0
TEXT
  5
E8
330
71
100
AcDbEntity
  8
0
 62
     7
100
AcDbText
 10
45.55339070177039
 20
-7.038175485979682
 30
0.0
 40
1.3
  1
±0.05
 41
0.7692307692307697
  7
FDASTYLE0
 72
     5
 11
50.75339070177039
 21
-7.038175485979682
 31
0.0
100
AcDbText
  0
ENDBLK
  5
73
330
71
100
AcDbEntity
  8
0
100
AcDbBlockEnd
  0
BLOCK
  5
75
330
74
100
AcDbEntity
  8
0
100
AcDbBlockBegin
  2
DA_IMAGEDIMGROUP_9
 70
     0
 71
     0
 10
0.0
 20
0.0
 30
0.0
  3
DA_IMAGEDIMGROUP_9
  1

  0
LINE
  5
E9
330
74
100
AcDbEntity
  8
0
  6
CONTINUOUS
 62
     9
100
AcDbLine
 10
33.4045007017704
 20
-3.63817548597968
 30
0.0
 11
33.4045007017704
 21
-13.33817548597968
 31
0.0
  0
LINE
  5
EA
330
74
100
AcDbEntity
  8
0
  6
CONTINUOUS
 62
     9
100
AcDbLine
 10
36.70450070177039
 20
-3.63817548597968
 30
0.0
 11
36.70450070177039
 21
-13.33817548597968
 31
0.0
  0
LINE
  5
EB
330
74
100
AcDbEntity
  8
0
  6
CONTINUOUS
 62
     9
100
AcDbLine
 10
33.4045007017704
 20
-12.83817548597968
 30
0.0
 11
36.70450070177039
 21
-12.83817548597968
 31
0.0
  0
LINE
  5
EC
330
74
100
AcDbEntity
  8
0
  6
CONTINUOUS
 62
     9
100
AcDbLine
 10
45.55339070177039
 20
-12.83817548597968
 30
0.0
 11
36.70450070177039
 21
-12.83817548597968
 31
0.0
  0
INSERT
  5
ED
330
74
100
AcDbEntity
  8
0
 62
     9
100
AcDbBlockReference
  2
_OPEN30
 10
36.70450070177039
 20
-12.83817548597968
 30
0.0
 41
1.500001393912182
 42
1.499994636989232
 50
180.0
  0
LINE
  5
EE
330
74
100
AcDbEntity
  8
0
  6
CONTINUOUS
 62
     9
100
AcDbLine
 10
30.9045007017704
 20
-12.83817548597968
 30
0.0
 11
33.4045007017704
 21
-12.83817548597968
 31
0.0
  0
INSERT
  5
EF
330
74
100
AcDbEntity
  8
0
 62
     9
100
AcDbBlockReference
  2
_OPEN30
 10
33.4045007017704
 20
-12.83817548597968
 30
0.0
 41
1.500001393912182
 42
1.499994636989232
 50
360.0
  0
TEXT
  5
F0
330
74
100
AcDbEntity
  8
0
 62
     7
100
AcDbText
 10
38.65339070177039
 20
-12.33817548597968
 30
0.0
 40
2.0
  1
※3.3
 41
0.7619047619047618
  7
FDASTYLE0
 72
     5
 11
45.05339070177039
 21
-12.33817548597968
 31
0.0
100
AcDbText
  0
ENDBLK
  5
76
330
74
100
AcDbEntity
  8
0
100
AcDbBlockEnd
  0
BLOCK
  5
78
330
77
100
AcDbEntity
  8
0
100
AcDbBlockBegin
  2
DA_IMAGEDIMGROUP_10
 70
     0
 71
     0
 10
0.0
 20
0.0
 30
0.0
  3
DA_IMAGEDIMGROUP_10
  1

  0
LINE
  5
F1
330
77
100
AcDbEntity
  8
0
  6
CONTINUOUS
 62
     9
100
AcDbLine
 10
3.904500701770419
 20
-4.038175485979689
 30
0.0
 11
3.904500701770419
 21
-23.78031198449601
 31
0.0
  0
LINE
  5
F2
330
77
100
AcDbEntity
  8
0
  6
CONTINUOUS
 62
     9
100
AcDbLine
 10
36.70450070177039
 20
-3.63817548597968
 30
0.0
 11
36.70450070177039
 21
-23.78031198449601
 31
0.0
  0
LINE
  5
F3
330
77
100
AcDbEntity
  8
0
  6
CONTINUOUS
 62
     9
100
AcDbLine
 10
3.904500701770419
 20
-23.28031198449601
 30
0.0
 11
36.70450070177039
 21
-23.28031198449601
 31
0.0
  0
INSERT
  5
F4
330
77
100
AcDbEntity
  8
0
 62
     9
100
AcDbBlockReference
  2
_OPEN30
 10
3.904500701770419
 20
-23.28031198449601
 30
0.0
 41
1.500001393912182
 42
1.499994636989232
 50
180.0
  0
INSERT
  5
F5
330
77
100
AcDbEntity
  8
0
 62
     9
100
AcDbBlockReference
  2
_OPEN30
 10
36.70450070177039
 20
-23.28031198449601
 30
0.0
 41
1.500001393912182
 42
1.499994636989232
 50
360.0
  0
TEXT
  5
F6
330
77
100
AcDbEntity
  8
0
 62
     7
100
AcDbText
 10
13.10450070177041
 20
-22.78031198449601
 30
0.0
 40
2.0
  1
※32.6+0.2
 41
0.782608695652174
  7
FDASTYLE0
 72
     5
 11
27.5045007017704
 21
-22.78031198449601
 31
0.0
100
AcDbText
  0
ENDBLK
  5
79
330
77
100
AcDbEntity
  8
0
100
AcDbBlockEnd
  0
BLOCK
  5
7B
330
7A
100
AcDbEntity
  8
0
100
AcDbBlockBegin
  2
DA_IMAGEDIMGROUP_11
 70
     0
 71
     0
 10
0.0
 20
0.0
 30
0.0
  3
DA_IMAGEDIMGROUP_11
  1

  0
LINE
  5
F7
330
7A
100
AcDbEntity
  8
0
  6
CONTINUOUS
 62
     9
100
AcDbLine
 10
2.48450070177041
 20
0.1618245140203118
 30
0.0
 11
-19.59549929822958
 21
0.1618245140203118
 31
0.0
  0
LINE
  5
F8
330
7A
100
AcDbEntity
  8
0
  6
CONTINUOUS
 62
     9
100
AcDbLine
 10
2.48450070177041
 20
8.161824514020317
 30
0.0
 11
-19.59549929822958
 21
8.161824514020317
 31
0.0
  0
LINE
  5
F9
330
7A
100
AcDbEntity
  8
0
  6
CONTINUOUS
 62
     9
100
AcDbLine
 10
-19.09549929822958
 20
0.1618245140203118
 30
0.0
 11
-19.09549929822958
 21
8.161824514020317
 31
0.0
  0
INSERT
  5
FA
330
7A
100
AcDbEntity
  8
0
 62
     9
100
AcDbBlockReference
  2
_OPEN30
 10
-19.09549929822958
 20
0.1618245140203118
 30
0.0
 41
1.500001393912182
 42
1.499994636989232
 50
270.0
  0
INSERT
  5
FB
330
7A
100
AcDbEntity
  8
0
 62
     9
100
AcDbBlockReference
  2
_OPEN30
 10
-19.09549929822958
 20
8.161824514020317
 30
0.0
 41
1.500001393912182
 42
1.499994636989232
 50
90.0
  0
TEXT
  5
FC
330
7A
100
AcDbEntity
  8
0
 62
     7
100
AcDbText
 10
-19.59549929822958
 20
2.561824514020314
 30
0.0
 40
2.0
  1
φ8
 50
90.0
 41
0.7272727272727279
  7
FDASTYLE0
 72
     5
 11
-19.59549929822958
 21
5.761824514020317
 31
0.0
100
AcDbText
  0
ENDBLK
  5
7C
330
7A
100
AcDbEntity
  8
0
100
AcDbBlockEnd
  0
BLOCK
  5
7E
330
7D
100
AcDbEntity
  8
0
100
AcDbBlockBegin
  2
DC_GROUP_6
 70
     0
 71
     0
 10
0.0
 20
0.0
 30
0.0
  3
DC_GROUP_6
  1

  0
LINE
  5
FD
330
7D
100
AcDbEntity
  8
0
  6
CONTINUOUS
 62
     9
100
AcDbLine
 10
37.2045007017704
 20
-3.13817548597968
 30
0.0
 11
42.7045007017704
 21
-3.13817548597968
 31
0.0
  0
LINE
  5
FE
330
7D
100
AcDbEntity
  8
0
  6
CONTINUOUS
 62
     9
100
AcDbLine
 10
37.2045007017704
 20
11.46182451402031
 30
0.0
 11
38.86706246411698
 21
11.46182451402031
 31
0.0
  0
LINE
  5
FF
330
7D
100
AcDbEntity
  8
0
  6
CONTINUOUS
 62
     9
100
AcDbLine
 10
40.66295337320788
 20
11.46182451402031
 30
0.0
 11
42.7045007017704
 21
11.46182451402031
 31
0.0
  0
LINE
  5
100
330
7D
100
AcDbEntity
  8
0
  6
CONTINUOUS
 62
     9
100
AcDbLine
 10
42.2045007017704
 20
11.46182451402031
 30
0.0
 11
42.2045007017704
 21
-3.13817548597968
 31
0.0
  0
INSERT
  5
101
330
7D
100
AcDbEntity
  8
0
 62
     9
100
AcDbBlockReference
  2
_OPEN30
 10
42.2045007017704
 20
11.46182451402031
 30
0.0
 41
1.500001393912182
 42
1.499994636989232
 50
90.0
  0
INSERT
  5
102
330
7D
100
AcDbEntity
  8
0
 62
     9
100
AcDbBlockReference
  2
_OPEN30
 10
42.2045007017704
 20
-3.13817548597968
 30
0.0
 41
1.500001393912182
 42
1.499994636989232
 50
270.0
  0
TEXT
  5
103
330
7D
100
AcDbEntity
  8
0
 62
     7
100
AcDbText
 10
41.7045007017704
 20
-2.962175485979683
 30
0.0
 40
2.0
  1
φ14.6
 50
90.0
 41
0.7692307692307692
  7
FDASTYLE0
 72
     5
 11
41.7045007017704
 21
5.037824514020318
 31
0.0
100
AcDbText
  0
TEXT
  5
104
330
7D
100
AcDbEntity
  8
0
 62
     7
100
AcDbText
 10
40.4045007017704
 20
5.537824514020318
 30
0.0
 40
1.3
  1
+0.011
 50
90.0
 41
0.8000000000000003
  7
FDASTYLE0
 72
     5
 11
40.4045007017704
 21
11.77782451402032
 31
0.0
100
AcDbText
  0
TEXT
  5
105
330
7D
100
AcDbEntity
  8
0
 62
     7
100
AcDbText
 10
41.8045007017704
 20
5.537824514020318
 30
0.0
 40
1.3
  1
 0
 50
90.0
 41
0.7999999999999993
  7
FDASTYLE0
 72
     5
 11
41.8045007017704
 21
7.617824514020316
 31
0.0
100
AcDbText
  0
ENDBLK
  5
7F
330
7D
100
AcDbEntity
  8
0
100
AcDbBlockEnd
  0
BLOCK
  5
81
330
80
100
AcDbEntity
  8
0
100
AcDbBlockBegin
  2
DC_GROUP_7
 70
     0
 71
     0
 10
0.0
 20
0.0
 30
0.0
  3
DC_GROUP_7
  1

  0
LINE
  5
106
330
80
100
AcDbEntity
  8
0
  6
CONTINUOUS
 62
     9
100
AcDbLine
 10
-6.59549929822958
 20
6.16182451402031
 30
0.0
 11
-6.59549929822958
 21
23.16182451402032
 31
0.0
  0
LINE
  5
107
330
80
100
AcDbEntity
  8
0
  6
CONTINUOUS
 62
     9
100
AcDbLine
 10
3.904500701770419
 20
12.36182451402032
 30
0.0
 11
3.904500701770419
 21
23.16182451402032
 31
0.0
  0
LINE
  5
108
330
80
100
AcDbEntity
  8
0
  6
CONTINUOUS
 62
     9
100
AcDbLine
 10
36.50450070177042
 20
12.61182451402031
 30
0.0
 11
36.50450070177042
 21
18.25483679525222
 31
0.0
  0
LINE
  5
109
330
80
100
AcDbEntity
  8
0
  6
CONTINUOUS
 62
     9
100
AcDbLine
 10
36.50450070177042
 20
21.31124826804384
 30
0.0
 11
36.50450070177042
 21
23.16182451402032
 31
0.0
  0
LINE
  5
10A
330
80
100
AcDbEntity
  8
0
  6
CONTINUOUS
 62
     9
100
AcDbLine
 10
-6.59549929822958
 20
22.66182451402032
 30
0.0
 11
3.904500701770419
 21
22.66182451402032
 31
0.0
  0
INSERT
  5
10B
330
80
100
AcDbEntity
  8
0
 62
     9
100
AcDbBlockReference
  2
_OPEN30
 10
-6.59549929822958
 20
22.66182451402032
 30
0.0
 41
1.500001393912182
 42
1.499994636989232
 50
180.0
  0
INSERT
  5
10C
330
80
100
AcDbEntity
  8
0
 62
     9
100
AcDbBlockReference
  2
_OPEN30
 10
3.904500701770419
 20
22.66182451402032
 30
0.0
 41
1.500001393912182
 42
1.499994636989232
 50
360.0
  0
LINE
  5
10D
330
80
100
AcDbEntity
  8
0
  6
CONTINUOUS
 62
     9
100
AcDbLine
 10
3.904500701770419
 20
22.66182451402032
 30
0.0
 11
36.50450070177042
 21
22.66182451402032
 31
0.0
  0
INSERT
  5
10E
330
80
100
AcDbEntity
  8
0
 62
     9
100
AcDbBlockReference
  2
_OPEN30
 10
3.904500701770419
 20
22.66182451402032
 30
0.0
 41
1.500001393912182
 42
1.499994636989232
 50
180.0
  0
INSERT
  5
10F
330
80
100
AcDbEntity
  8
0
 62
     9
100
AcDbBlockReference
  2
_OPEN30
 10
36.50450070177042
 20
22.66182451402032
 30
0.0
 41
1.500001393912182
 42
1.499994636989232
 50
360.0
  0
TEXT
  5
110
330
80
100
AcDbEntity
  8
0
 62
     7
100
AcDbText
 10
-4.795499298229581
 20
23.16182451402032
 30
0.0
 40
2.0
  1
10.5
 41
0.8
  7
FDASTYLE0
 72
     5
 11
1.604500701770419
 21
23.16182451402032
 31
0.0
100
AcDbText
  0
TEXT
  5
111
330
80
100
AcDbEntity
  8
0
 62
     7
100
AcDbText
 10
17.00450070177042
 20
23.16182451402032
 30
0.0
 40
2.0
  1
32.6
 41
0.7999999999999998
  7
FDASTYLE0
 72
     5
 11
23.40450070177042
 21
23.16182451402032
 31
0.0
100
AcDbText
  0
ENDBLK
  5
82
330
80
100
AcDbEntity
  8
0
100
AcDbBlockEnd
  0
BLOCK
  5
84
330
83
100
AcDbEntity
  8
0
100
AcDbBlockBegin
  2
DA_IMAGEDIMGROUP_12
 70
     0
 71
     0
 10
0.0
 20
0.0
 30
0.0
  3
DA_IMAGEDIMGROUP_12
  1

  0
LINE
  5
112
330
83
100
AcDbEntity
  8
0
  6
CONTINUOUS
 62
     9
100
AcDbLine
 10
-43.20821949467995
 20
12.14186859104026
 30
0.0
 11
-40.81431898903374
 21
9.747968085394055
 31
0.0
  0
LINE
  5
113
330
83
100
AcDbEntity
  8
0
  6
CONTINUOUS
 62
     9
100
AcDbLine
 10
-46.5136619797167
 20
4.16182451402029
 30
0.0
 11
-44.22817541766004
 21
4.161824514020289
 31
0.0
  0
ARC
  5
114
330
83
100
AcDbEntity
  8
0
  6
CONTINUOUS
 62
     9
100
AcDbCircle
 10
-35.22817541765999
 20
4.161824514020289
 30
0.0
 40
10.78548656205672
100
AcDbArc
 50
134.9999999999999
 51
180.0
  0
INSERT
  5
115
330
83
100
AcDbEntity
  8
0
 62
     9
100
AcDbBlockReference
  2
_OPEN30
 10
-42.85466610408667
 20
11.78831520044699
 30
0.0
 41
1.500001393912182
 42
1.499994636989232
 50
48.98423022952161
  0
INSERT
  5
116
330
83
100
AcDbEntity
  8
0
 62
     9
100
AcDbBlockReference
  2
_OPEN30
 10
-46.0136619797167
 20
4.16182451402029
 30
0.0
 41
1.500001393912182
 42
1.499994636989232
 50
266.0157697704786
  0
TEXT
  5
117
330
83
100
AcDbEntity
  8
0
 62
     7
100
AcDbText
 10
-46.57304570445158
 20
6.263282369471182
 30
0.0
 40
2.0
  1
45°
 50
67.49999999999993
 41
0.7499999999999991
  7
FDASTYLE0
 72
     5
 11
-44.73616522909914
 21
10.69790412552535
 31
0.0
100
AcDbText
  0
ENDBLK
  5
85
330
83
100
AcDbEntity
  8
0
100
AcDbBlockEnd
  0
BLOCK
  5
87
330
86
100
AcDbEntity
  8
0
100
AcDbBlockBegin
  2
DA_IMAGEDIMGROUP_13
 70
     0
 71
     0
 10
0.0
 20
0.0
 30
0.0
  3
DA_IMAGEDIMGROUP_13
  1

  0
LINE
  5
118
330
86
100
AcDbEntity
  8
0
  6
CONTINUOUS
 62
     9
100
AcDbLine
 10
-27.24813134064006
 20
12.14186859104031
 30
0.0
 11
-29.64203184628628
 21
9.747968085394057
 31
0.0
  0
ARC
  5
119
330
86
100
AcDbEntity
  8
0
  6
CONTINUOUS
 62
     9
100
AcDbCircle
 10
-35.22817541765997
 20
4.161824514020296
 30
0.0
 40
10.78548656205672
100
AcDbArc
 50
45.00000000000037
 51
135.0
  0
INSERT
  5
11A
330
86
100
AcDbEntity
  8
0
 62
     9
100
AcDbBlockReference
  2
_OPEN30
 10
-27.60168473123333
 20
11.78831520044703
 30
0.0
 41
1.500001393912182
 42
1.499994636989232
 50
318.9842302295218
  0
INSERT
  5
11B
330
86
100
AcDbEntity
  8
0
 62
     9
100
AcDbBlockReference
  2
_OPEN30
 10
-42.85466610408666
 20
11.78831520044698
 30
0.0
 41
1.500001393912182
 42
1.499994636989232
 50
221.0157697704784
  0
TEXT
  5
11C
330
86
100
AcDbEntity
  8
0
 62
     7
100
AcDbText
 10
-39.22817541766001
 20
15.447311076077
 30
0.0
 40
2.0
  1
4-90°
 50
0.0000000000002036
 41
0.7692307692307692
  7
FDASTYLE0
 72
     5
 11
-31.22817541766001
 21
15.44731107607703
 31
0.0
100
AcDbText
  0
ENDBLK
  5
88
330
86
100
AcDbEntity
  8
0
100
AcDbBlockEnd
  0
BLOCK
  5
8A
330
89
100
AcDbEntity
  8
0
100
AcDbBlockBegin
  2
DA_IMAGEDIMGROUP_14
 70
     0
 71
     0
 10
0.0
 20
0.0
 30
0.0
  3
DA_IMAGEDIMGROUP_14
  1

  0
LINE
  5
11D
330
89
100
AcDbEntity
  8
0
  6
CONTINUOUS
 62
     9
100
AcDbLine
 10
-40.6243822243845
 20
1.538667618396203
 30
0.0
 11
-29.83196861093553
 21
6.784981409644434
 31
0.0
  0
LINE
  5
11E
330
89
100
AcDbEntity
  8
0
  6
CONTINUOUS
 62
     9
100
AcDbLine
 10
-19.13581833479493
 20
11.98450050860223
 30
0.0
 11
-29.83196861093553
 21
6.784981409644434
 31
0.0
  0
INSERT
  5
11F
330
89
100
AcDbEntity
  8
0
 62
     9
100
AcDbBlockReference
  2
_OPEN30
 10
-29.83196861093553
 20
6.784981409644434
 30
0.0
 41
1.500001393912182
 42
1.499994636989232
 50
205.9249084557021
  0
LINE
  5
120
330
89
100
AcDbEntity
  8
0
  6
CONTINUOUS
 62
     9
100
AcDbLine
 10
-42.87280172718636
 20
0.4456855785528213
 30
0.0
 11
-40.6243822243845
 21
1.538667618396203
 31
0.0
  0
INSERT
  5
121
330
89
100
AcDbEntity
  8
0
 62
     9
100
AcDbBlockReference
  2
_OPEN30
 10
-40.6243822243845
 20
1.538667618396203
 30
0.0
 41
1.500001393912182
 42
1.499994636989232
 50
25.92490845570213
  0
TEXT
  5
122
330
89
100
AcDbEntity
  8
0
 62
     7
100
AcDbText
 10
-27.65737828271034
 20
8.398020332428965
 30
0.0
 40
2.0
  1
φ12
 50
25.92490845570213
 41
0.7500000000000001
  7
FDASTYLE0
 72
     5
 11
-23.34041283733075
 21
10.49654584892826
 31
0.0
100
AcDbText
  0
TEXT
  5
123
330
89
100
AcDbEntity
  8
0
 62
     7
100
AcDbText
 10
-23.45907959748894
 20
11.88432039835391
 30
0.0
 40
1.3
  1
±0.2
 50
25.92490845570213
 41
0.7619047619047616
  7
FDASTYLE0
 72
     5
 11
-19.71770954482663
 21
13.70304251265329
 31
0.0
100
AcDbText
  0
ENDBLK
  5
8B
330
89
100
AcDbEntity
  8
0
100
AcDbBlockEnd
  0
BLOCK
  5
8D
330
8C
100
AcDbEntity
  8
0
100
AcDbBlockBegin
  2
DC_GROUP_8
 70
     0
 71
     0
 10
0.0
 20
0.0
 30
0.0
  3
DC_GROUP_8
  1

  0
INSERT
  5
124
330
8C
100
AcDbEntity
  8
0
  6
CONTINUOUS
100
AcDbBlockReference
  2
DC_GROUP_9
 10
0.0
 20
0.0
 30
0.0
  0
LINE
  5
125
330
8C
100
AcDbEntity
  8
0
  6
CONTINUOUS
 62
     9
100
AcDbLine
 10
34.80450070177032
 20
12.1618245140203
 30
0.0
 11
30.13783082112215
 21
18.66182451402032
 31
0.0
  0
INSERT
  5
126
330
8C
100
AcDbEntity
  8
0
 62
     9
100
AcDbBlockReference
  2
_OPEN30
 10
34.80450070177032
 20
12.1618245140203
 30
0.0
 41
1.500001393912182
 42
1.499994636989232
 50
305.6764269162318
  0
ENDBLK
  5
8E
330
8C
100
AcDbEntity
  8
0
100
AcDbBlockEnd
  0
BLOCK
  5
90
330
8F
100
AcDbEntity
  8
0
100
AcDbBlockBegin
  2
DC_GROUP_9
 70
     0
 71
     0
 10
0.0
 20
0.0
 30
0.0
  3
DC_GROUP_9
  1

  0
LINE
  5
127
330
8F
100
AcDbEntity
  8
0
  6
CONTINUOUS
 62
     9
100
AcDbLine
 10
57.99219954934147
 20
18.66182451402032
 30
0.0
 11
30.13783082112215
 21
18.66182451402032
 31
0.0
  0
TEXT
  5
128
330
8F
100
AcDbEntity
  8
0
 62
     7
100
AcDbText
 10
30.42408013883638
 20
19.06182451402032
 30
0.0
 40
2.0
  1
3-M1.7(P=0.35)×3Ｌ
 41
0.781609195402299
  7
FDASTYLE0
 72
     5
 11
57.62408013883638
 21
19.06182451402032
 31
0.0
100
AcDbText
  0
ENDBLK
  5
91
330
8F
100
AcDbEntity
  8
0
100
AcDbBlockEnd
  0
BLOCK
  5
9F
330
9E
100
AcDbEntity
  8
0
100
AcDbBlockBegin
  2
_OPEN30
 70
     0
 71
     0
 10
0.0
 20
0.0
 30
0.0
  3
_OPEN30
  1

  0
LINE
  5
A1
330
9E
100
AcDbEntity
  8
0
  6
BYBLOCK
 62
     0
100
AcDbLine
 10
-1.0
 20
0.267949
 30
0.0
 11
0.0
 21
0.0
 31
0.0
  0
LINE
  5
A2
330
9E
100
AcDbEntity
  8
0
  6
BYBLOCK
 62
     0
100
AcDbLine
 10
0.0
 20
0.0
 30
0.0
 11
-1.0
 21
-0.267949
 31
0.0
  0
LINE
  5
A3
330
9E
100
AcDbEntity
  8
0
  6
BYBLOCK
 62
     0
100
AcDbLine
 10
0.0
 20
0.0
 30
0.0
 11
-1.0
 21
0.0
 31
0.0
  0
ENDBLK
  5
A0
330
9E
100
AcDbEntity
  8
0
100
AcDbBlockEnd
  0
ENDSEC
  0
SECTION
  2
ENTITIES
  0
LINE
  5
129
330
1F
100
AcDbEntity
  8
0
  6
CENTER
 62
     9
100
AcDbLine
 10
-7.59549929822958
 20
4.161824514020317
 30
0.0
 11
37.7045007017704
 21
4.161824514020317
 31
0.0
  0
CIRCLE
  5
12A
330
1F
100
AcDbEntity
  8
0
  6
CENTER
 62
     9
100
AcDbCircle
 10
-35.22817541766001
 20
4.161824514020317
 30
0.0
 40
6.0
  0
LINE
  5
12B
330
1F
100
AcDbEntity
  8
0
  6
CENTER
 62
     9
100
AcDbLine
 10
-40.46076559844046
 20
-1.070765666760124
 30
0.0
 11
-38.55602190110984
 21
0.8339780305704601
 31
0.0
  0
LINE
  5
12C
330
1F
100
AcDbEntity
  8
0
  6
CENTER
 62
     9
100
AcDbLine
 10
-32.049083879275
 20
7.340916052405309
 30
0.0
 11
-29.99558523687956
 21
9.39441469480078
 31
0.0
  0
LINE
  5
12D
330
1F
100
AcDbEntity
  8
0
  6
CENTER
 62
     9
100
AcDbLine
 10
-29.99558523687956
 20
-1.070765666760122
 30
0.0
 11
-31.97555668860802
 21
0.9092057849683357
 31
0.0
  0
LINE
  5
12E
330
1F
100
AcDbEntity
  8
0
  6
CENTER
 62
     9
100
AcDbLine
 10
-38.48079414671197
 20
7.414443243072286
 30
0.0
 11
-40.46076559844046
 21
9.39441469480078
 31
0.0
  0
LINE
  5
12F
330
1F
100
AcDbEntity
  8
0
  6
CENTER
 62
     9
100
AcDbLine
 10
34.80450070177032
 20
12.6618245140203
 30
0.0
 11
34.80450070177032
 21
8.561824504791908
 31
0.0
  0
LINE
  5
130
330
1F
100
AcDbEntity
  8
0
  6
CONTINUOUS
 62
     9
100
AcDbLine
 10
36.70450070177039
 20
-3.13817548597968
 30
0.0
 11
36.70450070177039
 21
11.46182451402031
 31
0.0
  0
LINE
  5
131
330
1F
100
AcDbEntity
  8
0
  6
CONTINUOUS
 62
     9
100
AcDbLine
 10
-45.31597858266714
 20
-11.3737818159939
 30
0.0
 11
-7.065163934426231
 21
-11.3737818159939
 31
0.0
  0
LINE
  5
132
330
1F
100
AcDbEntity
  8
0
  6
DASHED2
 62
     9
100
AcDbLine
 10
33.4045007017704
 20
11.46182451402031
 30
0.0
 11
33.4045007017704
 21
-3.13817548597968
 31
0.0
  0
LINE
  5
133
330
1F
100
AcDbEntity
  8
0
  6
DASHED2
 62
     9
100
AcDbLine
 10
33.4045007017704
 20
11.46182451402031
 30
0.0
 11
36.50450070177042
 21
11.46182451402031
 31
0.0
  0
LINE
  5
134
330
1F
100
AcDbEntity
  8
0
  6
DASHED2
 62
     9
100
AcDbLine
 10
33.4045007017704
 20
-3.13817548597968
 30
0.0
 11
36.50450070177042
 21
-3.13817548597968
 31
0.0
  0
LINE
  5
135
330
1F
100
AcDbEntity
  8
0
  6
DASHED2
 62
     9
100
AcDbLine
 10
29.50450070177036
 20
6.77182451402031
 30
0.0
 11
29.50450070177036
 21
1.551824514020305
 31
0.0
  0
LINE
  5
136
330
1F
100
AcDbEntity
  8
0
  6
DASHED2
 62
     9
100
AcDbLine
 10
29.50450070177036
 20
1.551824514020305
 30
0.0
 11
32.50450070177035
 21
1.551824514020305
 31
0.0
  0
LINE
  5
137
330
1F
100
AcDbEntity
  8
0
  6
DASHED2
 62
     9
100
AcDbLine
 10
29.50450070177036
 20
6.77182451402031
 30
0.0
 11
32.50450070177035
 21
6.77182451402031
 31
0.0
  0
LINE
  5
138
330
1F
100
AcDbEntity
  8
0
  6
DASHED2
 62
     9
100
AcDbLine
 10
32.50450070177038
 20
1.551824514020305
 30
0.0
 11
32.50450070177035
 21
6.77182451402031
 31
0.0
  0
LINE
  5
139
330
1F
100
AcDbEntity
  8
0
  6
DASHED2
 62
     9
100
AcDbLine
 10
29.50450070177036
 20
6.096824514020312
 30
0.0
 11
32.50450070177036
 21
6.096824514020312
 31
0.0
  0
LINE
  5
13A
330
1F
100
AcDbEntity
  8
0
  6
DASHED2
 62
     9
100
AcDbLine
 10
29.50450070177036
 20
2.226824514020322
 30
0.0
 11
32.50450070177036
 21
2.226824514020322
 31
0.0
  0
LINE
  5
13B
330
1F
100
AcDbEntity
  8
0
  6
CONTINUOUS
 62
     9
100
AcDbLine
 10
-40.08694254558766
 20
-0.86846343484551
 30
0.0
 11
-45.31597858266714
 21
-11.3737818159939
 31
0.0
  0
INSERT
  5
13C
330
1F
100
AcDbEntity
  8
0
 62
     9
100
AcDbBlockReference
  2
_OPEN30
 10
-40.08694254558766
 20
-0.86846343484551
 30
0.0
 41
1.500001393912182
 42
1.499994636989232
 50
63.5381136406908
  0
LINE
  5
13D
330
1F
100
AcDbEntity
  8
0
  6
CONTINUOUS
 62
     3
100
AcDbLine
 10
36.50450070177042
 20
12.1618245140203
 30
0.0
 11
36.50450070177042
 21
-3.838175485979683
 31
0.0
  0
CIRCLE
  5
13E
330
1F
100
AcDbEntity
  8
0
  6
CONTINUOUS
 62
     3
100
AcDbCircle
 10
6.904500701770426
 20
4.161824514020317
 30
0.0
 40
1.25
  0
LINE
  5
13F
330
1F
100
AcDbEntity
  8
0
  6
CONTINUOUS
 62
     3
100
AcDbLine
 10
7.611607482956972
 20
4.868931295206856
 30
0.0
 11
6.19739392058388
 21
3.454717732833764
 31
0.0
  0
LINE
  5
140
330
1F
100
AcDbEntity
  8
0
  6
CONTINUOUS
 62
     3
100
AcDbLine
 10
6.19739392058388
 20
4.868931295206856
 30
0.0
 11
7.611607482956972
 21
3.454717732833764
 31
0.0
  0
LINE
  5
141
330
1F
100
AcDbEntity
  8
0
  6
CONTINUOUS
 62
     3
100
AcDbLine
 10
4.204500701770416
 20
-3.838175485979686
 30
0.0
 11
36.50450070177042
 21
-3.838175485979683
 31
0.0
  0
LINE
  5
142
330
1F
100
AcDbEntity
  8
0
  6
CONTINUOUS
 62
     3
100
AcDbLine
 10
4.204500701770416
 20
12.1618245140203
 30
0.0
 11
36.50450070177042
 21
12.1618245140203
 31
0.0
  0
CIRCLE
  5
143
330
1F
100
AcDbEntity
  8
0
  6
CONTINUOUS
 62
     3
100
AcDbCircle
 10
-35.22817541766001
 20
4.161824514020317
 30
0.0
 40
8.0
  0
CIRCLE
  5
144
330
1F
100
AcDbEntity
  8
0
  6
CONTINUOUS
 62
     3
100
AcDbCircle
 10
-35.22817541766001
 20
4.161824514020317
 30
0.0
 40
2.0
  0
CIRCLE
  5
145
330
1F
100
AcDbEntity
  8
0
  6
CONTINUOUS
 62
     3
100
AcDbCircle
 10
-35.22817541766001
 20
4.161824514020317
 30
0.0
 40
4.0
  0
LINE
  5
146
330
1F
100
AcDbEntity
  8
0
  6
CONTINUOUS
 62
     3
100
AcDbLine
 10
-36.55105107319231
 20
5.661824514020317
 30
0.0
 11
-33.90529976212771
 21
5.661824514020317
 31
0.0
  0
CIRCLE
  5
147
330
1F
100
AcDbEntity
  8
0
  6
CONTINUOUS
 62
     3
100
AcDbCircle
 10
-35.22817541766001
 20
4.161824514020317
 30
0.0
 40
7.700000000000003
  0
CIRCLE
  5
148
330
1F
100
AcDbEntity
  8
0
  6
CONTINUOUS
 62
     3
100
AcDbCircle
 10
-35.22817541766001
 20
4.161824514020317
 30
0.0
 40
3.500000000000002
  0
LINE
  5
149
330
1F
100
AcDbEntity
  8
0
  6
CONTINUOUS
 62
     3
100
AcDbLine
 10
-6.59549929822958
 20
5.66182451402031
 30
0.0
 11
-0.0954992982295808
 21
5.66182451402031
 31
0.0
  0
LINE
  5
14A
330
1F
100
AcDbEntity
  8
0
  6
CONTINUOUS
 62
     3
100
AcDbLine
 10
-6.59549929822958
 20
2.16182451402031
 30
0.0
 11
-6.59549929822958
 21
5.66182451402031
 31
0.0
  0
LINE
  5
14B
330
1F
100
AcDbEntity
  8
0
  6
CONTINUOUS
 62
     3
100
AcDbLine
 10
-6.59549929822958
 20
2.16182451402031
 30
0.0
 11
0.3045007017704036
 21
2.16182451402031
 31
0.0
  0
LINE
  5
14C
330
1F
100
AcDbEntity
  8
0
  6
CONTINUOUS
 62
     3
100
AcDbLine
 10
-0.0954992982295808
 20
6.161824514020317
 30
0.0
 11
0.3045007017704036
 21
6.161824514020317
 31
0.0
  0
LINE
  5
14D
330
1F
100
AcDbEntity
  8
0
  6
CONTINUOUS
 62
     3
100
AcDbLine
 10
2.404500701770412
 20
0.1618245140203278
 30
0.0
 11
1.804500701770404
 21
0.1618245140203278
 31
0.0
  0
LINE
  5
14E
330
1F
100
AcDbEntity
  8
0
  6
CONTINUOUS
 62
     3
100
AcDbLine
 10
2.404500701770412
 20
8.161824514020317
 30
0.0
 11
1.804500701770404
 21
8.161824514020317
 31
0.0
  0
LINE
  5
14F
330
1F
100
AcDbEntity
  8
0
  6
CONTINUOUS
 62
     3
100
AcDbLine
 10
2.404500701770412
 20
8.161824514020317
 30
0.0
 11
2.404500701770412
 21
0.1618245140203278
 31
0.0
  0
LINE
  5
150
330
1F
100
AcDbEntity
  8
0
  6
CONTINUOUS
 62
     3
100
AcDbLine
 10
1.804500701770404
 20
8.161824514020317
 30
0.0
 11
1.804500701770404
 21
0.1618245140203278
 31
0.0
  0
LINE
  5
151
330
1F
100
AcDbEntity
  8
0
  6
CONTINUOUS
 62
     3
100
AcDbLine
 10
0.3045007017704036
 20
7.661824514020317
 30
0.0
 11
0.3045007017704036
 21
0.6618245140203118
 31
0.0
  0
LINE
  5
152
330
1F
100
AcDbEntity
  8
0
  6
CONTINUOUS
 62
     3
100
AcDbLine
 10
1.804500701770404
 20
7.661824514020317
 30
0.0
 11
0.3045007017704036
 21
7.661824514020317
 31
0.0
  0
LINE
  5
153
330
1F
100
AcDbEntity
  8
0
  6
CONTINUOUS
 62
     3
100
AcDbLine
 10
0.3045007017704036
 20
0.6618245140203118
 30
0.0
 11
1.804500701770404
 21
0.6618245140203118
 31
0.0
  0
LINE
  5
154
330
1F
100
AcDbEntity
  8
LAYER0080
  6
CONTINUOUS
 62
     3
100
AcDbLine
 10
-0.0954992982295808
 20
5.66182451402031
 30
0.0
 11
-0.0954992982295808
 21
6.161824514020317
 31
0.0
  0
LINE
  5
155
330
1F
100
AcDbEntity
  8
LAYER0080
  6
CONTINUOUS
 62
     3
100
AcDbLine
 10
-0.0954992982295808
 20
5.66182451402031
 30
0.0
 11
-0.0954992982295808
 21
6.161824514020317
 31
0.0
  0
LINE
  5
156
330
1F
100
AcDbEntity
  8
LAYER0080
  6
CONTINUOUS
 62
     3
100
AcDbLine
 10
2.404500701770412
 20
7.161824514020317
 30
0.0
 11
2.904500701770412
 21
7.161824514020317
 31
0.0
  0
LINE
  5
157
330
1F
100
AcDbEntity
  8
LAYER0080
  6
CONTINUOUS
 62
     3
100
AcDbLine
 10
2.904500701770412
 20
1.161824514020326
 30
0.0
 11
2.404500701770412
 21
1.161824514020326
 31
0.0
  0
LINE
  5
158
330
1F
100
AcDbEntity
  8
LAYER0080
  6
CONTINUOUS
 62
     3
100
AcDbLine
 10
4.904500701770419
 20
12.1618245140203
 30
0.0
 11
4.904500701770419
 21
-3.838175485979686
 31
0.0
  0
LINE
  5
159
330
1F
100
AcDbEntity
  8
LAYER0080
  6
CONTINUOUS
 62
     3
100
AcDbLine
 10
4.204500701770416
 20
12.16182451402032
 30
0.0
 11
4.204500701770416
 21
-3.838175485979686
 31
0.0
  0
LINE
  5
15A
330
1F
100
AcDbEntity
  8
LAYER0048
  6
CONTINUOUS
 62
     3
100
AcDbLine
 10
3.904500701770419
 20
8.161824514020317
 30
0.0
 11
2.98450070177041
 21
8.161824514020317
 31
0.0
  0
ARC
  5
15B
330
1F
100
AcDbEntity
  8
LAYER0048
  6
CONTINUOUS
 62
     3
100
AcDbCircle
 10
2.98450070177041
 20
8.081824514020319
 30
0.0
 40
0.08
100
AcDbArc
 50
90.0
 51
180.0
  0
ARC
  5
15C
330
1F
100
AcDbEntity
  8
LAYER0048
  6
CONTINUOUS
 62
     3
100
AcDbCircle
 10
2.98450070177041
 20
8.081824514020319
 30
0.0
 40
0.08
100
AcDbArc
 50
90.0
 51
180.0
  0
ARC
  5
15D
330
1F
100
AcDbEntity
  8
LAYER0048
  6
CONTINUOUS
 62
     3
100
AcDbCircle
 10
2.98450070177041
 20
0.2418245140203119
 30
0.0
 40
0.08
100
AcDbArc
 50
180.0
 51
270.0
  0
LINE
  5
15E
330
1F
100
AcDbEntity
  8
LAYER0048
  6
CONTINUOUS
 62
     3
100
AcDbLine
 10
2.904500701770412
 20
8.081824514020319
 30
0.0
 11
2.904500701770412
 21
0.2418245140203119
 31
0.0
  0
LINE
  5
15F
330
1F
100
AcDbEntity
  8
LAYER0048
  6
CONTINUOUS
 62
     3
100
AcDbLine
 10
3.904500701770419
 20
0.1618245140203278
 30
0.0
 11
2.98450070177041
 21
0.1618245140203278
 31
0.0
  0
ARC
  5
160
330
1F
100
AcDbEntity
  8
LAYER0048
  6
CONTINUOUS
 62
     3
100
AcDbCircle
 10
2.98450070177041
 20
0.2418245140203261
 30
0.0
 40
0.08
100
AcDbArc
 50
180.0
 51
270.0
  0
ARC
  5
161
330
1F
100
AcDbEntity
  8
LAYER0048
  6
CONTINUOUS
 62
     3
100
AcDbCircle
 10
2.98450070177041
 20
0.2418245140203261
 30
0.0
 40
0.08
100
AcDbArc
 50
180.0
 51
270.0
  0
LINE
  5
162
330
1F
100
AcDbEntity
  8
LAYER0032
  6
CONTINUOUS
 62
     3
100
AcDbLine
 10
3.904500701770419
 20
-3.538175485979689
 30
0.0
 11
3.904500701770419
 21
11.86182451402032
 31
0.0
  0
LINE
  5
163
330
1F
100
AcDbEntity
  8
LAYER0032
  6
CONTINUOUS
 62
     3
100
AcDbLine
 10
4.204500701770416
 20
12.16182451402032
 30
0.0
 11
3.904500701770419
 21
11.86182451402032
 31
0.0
  0
LINE
  5
164
330
1F
100
AcDbEntity
  8
LAYER0032
  6
CONTINUOUS
 62
     3
100
AcDbLine
 10
4.204500701770416
 20
-3.838175485979686
 30
0.0
 11
3.904500701770419
 21
-3.538175485979689
 31
0.0
  0
INSERT
  5
165
330
1F
100
AcDbEntity
  8
0
  6
CONTINUOUS
100
AcDbBlockReference
  2
DC_GROUP_1
 10
0.0
 20
0.0
 30
0.0
  0
INSERT
  5
166
330
1F
100
AcDbEntity
  8
0
  6
CONTINUOUS
100
AcDbBlockReference
  2
DC_GROUP_2
 10
0.0
 20
0.0
 30
0.0
  0
INSERT
  5
167
330
1F
100
AcDbEntity
  8
0
  6
CONTINUOUS
100
AcDbBlockReference
  2
DC_GROUP_3
 10
0.0
 20
0.0
 30
0.0
  0
INSERT
  5
168
330
1F
100
AcDbEntity
  8
0
  6
CONTINUOUS
100
AcDbBlockReference
  2
DC_GROUP_4
 10
0.0
 20
0.0
 30
0.0
  0
INSERT
  5
169
330
1F
100
AcDbEntity
  8
0
  6
CONTINUOUS
100
AcDbBlockReference
  2
DA_IMAGEDIMGROUP_3
 10
0.0
 20
0.0
 30
0.0
  0
INSERT
  5
16A
330
1F
100
AcDbEntity
  8
0
  6
CONTINUOUS
100
AcDbBlockReference
  2
DA_IMAGEDIMGROUP_4
 10
0.0
 20
0.0
 30
0.0
  0
INSERT
  5
16B
330
1F
100
AcDbEntity
  8
0
  6
CONTINUOUS
100
AcDbBlockReference
  2
DA_IMAGEDIMGROUP_5
 10
0.0
 20
0.0
 30
0.0
  0
INSERT
  5
16C
330
1F
100
AcDbEntity
  8
0
  6
CONTINUOUS
100
AcDbBlockReference
  2
DA_IMAGEDIMGROUP_6
 10
0.0
 20
0.0
 30
0.0
  0
INSERT
  5
16D
330
1F
100
AcDbEntity
  8
0
  6
CONTINUOUS
100
AcDbBlockReference
  2
DA_IMAGEDIMGROUP_7
 10
0.0
 20
0.0
 30
0.0
  0
INSERT
  5
16E
330
1F
100
AcDbEntity
  8
0
  6
CONTINUOUS
100
AcDbBlockReference
  2
DA_IMAGEDIMGROUP_8
 10
0.0
 20
0.0
 30
0.0
  0
INSERT
  5
16F
330
1F
100
AcDbEntity
  8
0
  6
CONTINUOUS
100
AcDbBlockReference
  2
DA_IMAGEDIMGROUP_9
 10
0.0
 20
0.0
 30
0.0
  0
INSERT
  5
170
330
1F
100
AcDbEntity
  8
0
  6
CONTINUOUS
100
AcDbBlockReference
  2
DA_IMAGEDIMGROUP_10
 10
0.0
 20
0.0
 30
0.0
  0
INSERT
  5
171
330
1F
100
AcDbEntity
  8
0
  6
CONTINUOUS
100
AcDbBlockReference
  2
DA_IMAGEDIMGROUP_11
 10
0.0
 20
0.0
 30
0.0
  0
INSERT
  5
172
330
1F
100
AcDbEntity
  8
0
  6
CONTINUOUS
100
AcDbBlockReference
  2
DC_GROUP_6
 10
0.0
 20
0.0
 30
0.0
  0
INSERT
  5
173
330
1F
100
AcDbEntity
  8
0
  6
CONTINUOUS
100
AcDbBlockReference
  2
DC_GROUP_7
 10
0.0
 20
0.0
 30
0.0
  0
INSERT
  5
174
330
1F
100
AcDbEntity
  8
0
  6
CONTINUOUS
100
AcDbBlockReference
  2
DA_IMAGEDIMGROUP_12
 10
0.0
 20
0.0
 30
0.0
  0
INSERT
  5
175
330
1F
100
AcDbEntity
  8
0
  6
CONTINUOUS
100
AcDbBlockReference
  2
DA_IMAGEDIMGROUP_13
 10
0.0
 20
0.0
 30
0.0
  0
INSERT
  5
176
330
1F
100
AcDbEntity
  8
0
  6
CONTINUOUS
100
AcDbBlockReference
  2
DA_IMAGEDIMGROUP_14
 10
0.0
 20
0.0
 30
0.0
  0
INSERT
  5
177
330
1F
100
AcDbEntity
  8
0
  6
CONTINUOUS
100
AcDbBlockReference
  2
DC_GROUP_8
 10
0.0
 20
0.0
 30
0.0
  0
INSERT
  5
178
330
1F
100
AcDbEntity
  8
LAYER0080
  6
CONTINUOUS
100
AcDbBlockReference
  2
DA_IMAGEDIMGROUP_1
 10
0.0
 20
0.0
 30
0.0
  0
INSERT
  5
179
330
1F
100
AcDbEntity
  8
LAYER0080
  6
CONTINUOUS
100
AcDbBlockReference
  2
DA_IMAGEDIMGROUP_2
 10
0.0
 20
0.0
 30
0.0
  0
TEXT
  5
17A
330
1F
100
AcDbEntity
  8
0
 62
     7
100
AcDbText
 10
-45.31597858266714
 20
-11.0737818159939
 30
0.0
 40
2.0
  1
　4-Ｍ2（Ｐ＝0.4）DEPTH　3.5ＭＡＸ
 41
0.7384615384615386
  7
FDASTYLE0
 72
     5
 11
-6.91597858266713
 21
-11.0737818159939
 31
0.0
100
AcDbText
  0
TEXT
  5
17B
330
1F
100
AcDbEntity
  8
0
 62
     7
100
AcDbText
 10
38.65339070177039
 20
-19.74629080118694
 30
0.0
 40
2.0
  1
（ＰＩＮＩＯＮ　ＰＯＳＩＴＩＯＮ）
 41
0.6666666666666667
  7
FDASTYLE0
 72
     5
 11
65.85339070177039
 21
-19.74629080118694
 31
0.0
100
AcDbText
  0
LINE
  5
17C
330
1F
100
AcDbEntity
  8
0
  6
CENTER
 62
     9
100
AcDbLine
 10
-26.72817541765998
 20
4.161824514020289
 30
0.0
 11
-43.72817541766004
 21
4.161824514020289
 31
0.0
  0
LINE
  5
17D
330
1F
100
AcDbEntity
  8
0
  6
CENTER
 62
     9
100
AcDbLine
 10
-35.22817541766001
 20
12.66182451402032
 30
0.0
 11
-35.22817541766001
 21
-4.33817548597974
 31
0.0
  0
INSERT
  5
17E
330
1F
100
AcDbEntity
  8
LAYER0015
  6
CONTINUOUS
100
AcDbBlockReference
  2
DC_GROUP_5
 10
0.0
 20
0.0
 30
0.0
  0
LINE
  5
17F
330
1F
100
AcDbEntity
  8
LAYER0009
  6
DASHED2
 62
     9
100
AcDbLine
 10
36.0545007017703
 20
12.1618245140203
 30
0.0
 11
35.5045007017703
 21
11.61182451402029
 31
0.0
  0
LINE
  5
180
330
1F
100
AcDbEntity
  8
LAYER0009
  6
DASHED2
 62
     9
100
AcDbLine
 10
33.55450070177029
 20
12.1618245140203
 30
0.0
 11
34.10450070177032
 21
11.61182451402029
 31
0.0
  0
TEXT
  5
181
330
1F
100
AcDbEntity
  8
LAYER0001
 62
     7
100
AcDbText
 10
-24.01994635131
 20
-27.23728313275386
 30
0.0
 40
2.0
  1
※　モータ端面からの寸法　Dimension from motor end face
 41
0.7533632286995515
  7
FDASTYLE0
 72
     5
 11
43.18005364869001
 21
-27.23728313275386
 31
0.0
100
AcDbText
  0
VIEWPORT
  5
4C
330
1B
100
AcDbEntity
 67
     1
  8
0
100
AcDbViewport
 10
6.449626299481452
 20
-1.728485574128925
 30
0.0
 40
329.2225864137337
 41
153.0527853517496
 68
     1
 69
     1
1001
ACAD
1000
MVIEW
1002
{
1070
    16
1010
0.0
1020
0.0
1030
0.0
1010
0.0
1020
0.0
1030
1.0
1040
0.0
1040
153.0527853517496
1040
6.449626299481452
1040
-1.728485574128925
1040
50.0
1040
0.0
1040
0.0
1070
     0
1070
   100
1070
     0
1070
     1
1070
     0
1070
     0
1070
     0
1070
     0
1040
0.0
1040
0.0
1040
0.0
1040
0.5
1040
0.5
1040
0.0
1040
0.0
1070
     0
1002
{
1002
}
1002
}
  0
ENDSEC
  0
SECTION
  2
OBJECTS
  0
DICTIONARY
  5
C
330
0
100
AcDbDictionary
  3
ACAD_GROUP
350
D
  3
ACAD_LAYOUT
350
1A
  3
ACAD_MLINESTYLE
350
17
  3
ACAD_PLOTSETTINGS
350
19
  3
ACDBHEADERROUNDTRIPXREC
350
182
  0
DICTIONARY
  5
D
102
{ACAD_REACTORS
330
C
102
}
330
C
100
AcDbDictionary
  0
DICTIONARY
  5
1A
102
{ACAD_REACTORS
330
C
102
}
330
C
100
AcDbDictionary
  0
DICTIONARY
  5
17
102
{ACAD_REACTORS
330
C
102
}
330
C
100
AcDbDictionary
  3
STANDARD
350
18
  0
DICTIONARY
  5
19
102
{ACAD_REACTORS
330
C
102
}
330
C
100
AcDbDictionary
  0
DICTIONARY
  5
182
102
{ACAD_REACTORS
330
C
102
}
330
C
100
AcDbDictionary
  3
CEPSNTYPE
350
18B
  3
DIMSTYLEDATA
350
1A1
  3
FINGERPRINTGUID
350
18C
  3
HYPERLINKBASE
350
185
  3
INSUNITS
350
18A
  3
LAYOUTDICT
350
187
  3
LWETCUNION
350
189
  3
PLOTSETDICT
350
188
  3
PSVPSCALE
350
18E
  3
PUCSBASE
350
191
  3
PUCSORGBACK
350
197
  3
PUCSORGBOTTOM
350
193
  3
PUCSORGFRONT
350
196
  3
PUCSORGLEFT
350
194
  3
PUCSORGRIGHT
350
195
  3
PUCSORGTOP
350
192
  3
PUCSORTHOREF
350
18F
  3
PUCSORTHOVIEW
350
190
  3
STYLESHEET
350
186
  3
TSTACKALIGN
350
183
  3
TSTACKSIZE
350
184
  3
UCSBASE
350
19A
  3
UCSORGBACK
350
1A0
  3
UCSORGBOTTOM
350
19C
  3
UCSORGFRONT
350
19F
  3
UCSORGLEFT
350
19D
  3
UCSORGRIGHT
350
19E
  3
UCSORGTOP
350
19B
  3
UCSORTHOREF
350
198
  3
UCSORTHOVIEW
350
199
  3
VERSIONGUID
350
18D
  0
MLINESTYLE
  5
18
102
{ACAD_REACTORS
330
17
102
}
330
17
100
AcDbMlineStyle
  2
Standard
 70
     0
  3

 62
   256
 51
90.0
 52
90.0
 71
     2
 49
0.5
 62
   256
  6
BYLAYER
 49
-0.5
 62
   256
  6
BYLAYER
  0
XRECORD
  5
18B
102
{ACAD_REACTORS
330
182
102
}
330
182
100
AcDbXrecord
 90
        0
  0
XRECORD
  5
1A1
102
{ACAD_REACTORS
330
182
102
}
330
182
100
AcDbXrecord
1000
DSTYLE
1002
{
1070
   171
 70
     2
1070
   143
 40
25.4
1070
   274
 70
     2
1070
    41
 40
1.25
1070
   141
 40
0.09
1070
   271
 70
     4
1070
    43
 40
0.38
1070
    44
 40
0.18
1070
   278
 70
    46
1070
    42
 40
0.0625
1070
   147
 40
0.09
1070
    77
 70
     3
1070
   272
 70
     4
1070
    73
 70
     1
1070
   172
 70
     0
1070
    74
 70
     1
1070
   283
 70
     1
1070
   340
340
11
1070
   140
 40
0.18
1070
   284
 70
     0
1070
    78
 70
     0
1002
}
  0
XRECORD
  5
18C
102
{ACAD_REACTORS
330
182
102
}
330
182
100
AcDbXrecord
  1
{86A3E9D9-C144-4558-A0CA-37EBC7ECC762}
  0
XRECORD
  5
185
102
{ACAD_REACTORS
330
182
102
}
330
182
100
AcDbXrecord
  1

  0
XRECORD
  5
18A
102
{ACAD_REACTORS
330
182
102
}
330
182
100
AcDbXrecord
 90
        4
  0
XRECORD
  5
187
102
{ACAD_REACTORS
330
182
102
}
330
182
100
AcDbXrecord
340
1A
  0
XRECORD
  5
189
102
{ACAD_REACTORS
330
182
102
}
330
182
100
AcDbXrecord
 90
    10781
  0
XRECORD
  5
188
102
{ACAD_REACTORS
330
182
102
}
330
182
100
AcDbXrecord
340
19
  0
XRECORD
  5
18E
102
{ACAD_REACTORS
330
182
102
}
330
182
100
AcDbXrecord
 40
0.0
  0
XRECORD
  5
191
102
{ACAD_REACTORS
330
182
102
}
330
182
100
AcDbXrecord
340
0
  0
XRECORD
  5
197
102
{ACAD_REACTORS
330
182
102
}
330
182
100
AcDbXrecord
 10
0.0
 20
0.0
 30
0.0
  0
XRECORD
  5
193
102
{ACAD_REACTORS
330
182
102
}
330
182
100
AcDbXrecord
 10
0.0
 20
0.0
 30
0.0
  0
XRECORD
  5
196
102
{ACAD_REACTORS
330
182
102
}
330
182
100
AcDbXrecord
 10
0.0
 20
0.0
 30
0.0
  0
XRECORD
  5
194
102
{ACAD_REACTORS
330
182
102
}
330
182
100
AcDbXrecord
 10
0.0
 20
0.0
 30
0.0
  0
XRECORD
  5
195
102
{ACAD_REACTORS
330
182
102
}
330
182
100
AcDbXrecord
 10
0.0
 20
0.0
 30
0.0
  0
XRECORD
  5
192
102
{ACAD_REACTORS
330
182
102
}
330
182
100
AcDbXrecord
 10
0.0
 20
0.0
 30
0.0
  0
XRECORD
  5
18F
102
{ACAD_REACTORS
330
182
102
}
330
182
100
AcDbXrecord
340
0
  0
XRECORD
  5
190
102
{ACAD_REACTORS
330
182
102
}
330
182
100
AcDbXrecord
 70
     0
  0
XRECORD
  5
186
102
{ACAD_REACTORS
330
182
102
}
330
182
100
AcDbXrecord
  1

  0
XRECORD
  5
183
102
{ACAD_REACTORS
330
182
102
}
330
182
100
AcDbXrecord
 90
        1
  0
XRECORD
  5
184
102
{ACAD_REACTORS
330
182
102
}
330
182
100
AcDbXrecord
 90
       70
  0
XRECORD
  5
19A
102
{ACAD_REACTORS
330
182
102
}
330
182
100
AcDbXrecord
340
0
  0
XRECORD
  5
1A0
102
{ACAD_REACTORS
330
182
102
}
330
182
100
AcDbXrecord
 10
0.0
 20
0.0
 30
0.0
  0
XRECORD
  5
19C
102
{ACAD_REACTORS
330
182
102
}
330
182
100
AcDbXrecord
 10
0.0
 20
0.0
 30
0.0
  0
XRECORD
  5
19F
102
{ACAD_REACTORS
330
182
102
}
330
182
100
AcDbXrecord
 10
0.0
 20
0.0
 30
0.0
  0
XRECORD
  5
19D
102
{ACAD_REACTORS
330
182
102
}
330
182
100
AcDbXrecord
 10
0.0
 20
0.0
 30
0.0
  0
XRECORD
  5
19E
102
{ACAD_REACTORS
330
182
102
}
330
182
100
AcDbXrecord
 10
0.0
 20
0.0
 30
0.0
  0
XRECORD
  5
19B
102
{ACAD_REACTORS
330
182
102
}
330
182
100
AcDbXrecord
 10
0.0
 20
0.0
 30
0.0
  0
XRECORD
  5
198
102
{ACAD_REACTORS
330
182
102
}
330
182
100
AcDbXrecord
340
0
  0
XRECORD
  5
199
102
{ACAD_REACTORS
330
182
102
}
330
182
100
AcDbXrecord
 70
     0
  0
XRECORD
  5
18D
102
{ACAD_REACTORS
330
182
102
}
330
182
100
AcDbXrecord
  1
{FAEB1C32-E019-11D5-929B-00C0DF256EC4}
  0
ENDSEC
  0
EOF
