  0
SECTION
  2
HEADER
  9
$ACADVER
  1
AC1014
  9
$ACADMAINTVER
 70
     9
  9
$DWGCODEPAGE
  3
ANSI_932
  9
$INSBASE
 10
0.0
 20
0.0
 30
0.0
  9
$EXTMIN
 10
-205.60330289751
 20
-100.8054796235022
 30
0.0
  9
$EXTMAX
 10
220.3593504609877
 20
95.61989363659545
 30
0.0
  9
$LIMMIN
 10
-99.0
 20
-70.0
  9
$LIMMAX
 10
99.0
 20
70.0
  9
$ORTHOMODE
 70
     0
  9
$REGENMODE
 70
     1
  9
$FILLMODE
 70
     1
  9
$QTEXTMODE
 70
     0
  9
$MIRRTEXT
 70
     1
  9
$DRAGMODE
 70
     2
  9
$LTSCALE
 40
0.6666666666666666
  9
$OSMODE
 70
    37
  9
$ATTMODE
 70
     1
  9
$TEXTSIZE
 40
0.2
  9
$TRACEWID
 40
0.05
  9
$TEXTSTYLE
  7
STANDARD
  9
$CLAYER
  8
0
  9
$CELTYPE
  6
BYLAYER
  9
$CECOLOR
 62
   256
  9
$CELTSCALE
 40
1.0
  9
$DELOBJ
 70
     1
  9
$DISPSILH
 70
     0
  9
$DIMSCALE
 40
1.0
  9
$DIMASZ
 40
1.666666666666667
  9
$DIMEXO
 40
0.0625
  9
$DIMDLI
 40
0.38
  9
$DIMRND
 40
0.0
  9
$DIMDLE
 40
0.0
  9
$DIMEXE
 40
0.18
  9
$DIMTP
 40
0.0
  9
$DIMTM
 40
0.0
  9
$DIMTXT
 40
0.18
  9
$DIMCEN
 40
0.09
  9
$DIMTSZ
 40
0.0
  9
$DIMTOL
 70
     0
  9
$DIMLIM
 70
     0
  9
$DIMTIH
 70
     1
  9
$DIMTOH
 70
     1
  9
$DIMSE1
 70
     0
  9
$DIMSE2
 70
     0
  9
$DIMTAD
 70
     3
  9
$DIMZIN
 70
     0
  9
$DIMBLK
  1

  9
$DIMASO
 70
     1
  9
$DIMSHO
 70
     1
  9
$DIMPOST
  1

  9
$DIMAPOST
  1

  9
$DIMALT
 70
     0
  9
$DIMALTD
 70
     2
  9
$DIMALTF
 40
25.4
  9
$DIMLFAC
 40
1.0
  9
$DIMTOFL
 70
     0
  9
$DIMTVP
 40
0.0
  9
$DIMTIX
 70
     0
  9
$DIMSOXD
 70
     0
  9
$DIMSAH
 70
     0
  9
$DIMBLK1
  1

  9
$DIMBLK2
  1

  9
$DIMSTYLE
  2
STANDARD
  9
$DIMCLRD
 70
     0
  9
$DIMCLRE
 70
     0
  9
$DIMCLRT
 70
     0
  9
$DIMTFAC
 40
1.0
  9
$DIMGAP
 40
0.09
  9
$DIMJUST
 70
     0
  9
$DIMSD1
 70
     0
  9
$DIMSD2
 70
     0
  9
$DIMTOLJ
 70
     1
  9
$DIMTZIN
 70
     0
  9
$DIMALTZ
 70
     0
  9
$DIMALTTZ
 70
     0
  9
$DIMFIT
 70
     3
  9
$DIMUPT
 70
     0
  9
$DIMUNIT
 70
     2
  9
$DIMDEC
 70
     4
  9
$DIMTDEC
 70
     4
  9
$DIMALTU
 70
     2
  9
$DIMALTTD
 70
     2
  9
$DIMTXSTY
  7
STANDARD
  9
$DIMAUNIT
 70
     0
  9
$LUNITS
 70
     2
  9
$LUPREC
 70
     4
  9
$SKETCHINC
 40
0.1
  9
$FILLETRAD
 40
0.5
  9
$AUNITS
 70
     0
  9
$AUPREC
 70
     0
  9
$MENU
  1
.
  9
$ELEVATION
 40
0.0
  9
$PELEVATION
 40
0.0
  9
$THICKNESS
 40
0.0
  9
$LIMCHECK
 70
     0
  9
$CHAMFERA
 40
0.5
  9
$CHAMFERB
 40
0.5
  9
$CHAMFERC
 40
1.0
  9
$CHAMFERD
 40
0.0
  9
$SKPOLY
 70
     0
  9
$TDCREATE
 40
2456352.579747465
  9
$TDUPDATE
 40
2456352.579747477
  9
$TDINDWG
 40
0.0000000116
  9
$TDUSRTIMER
 40
0.0000000116
  9
$USRTIMER
 70
     1
  9
$ANGBASE
 50
0.0
  9
$ANGDIR
 70
     0
  9
$PDMODE
 70
     0
  9
$PDSIZE
 40
1.0
  9
$PLINEWID
 40
0.0
  9
$COORDS
 70
     1
  9
$SPLFRAME
 70
     0
  9
$SPLINETYPE
 70
     6
  9
$SPLINESEGS
 70
     8
  9
$ATTDIA
 70
     0
  9
$ATTREQ
 70
     1
  9
$HANDLING
 70
     1
  9
$HANDSEED
  5
1A0
  9
$SURFTAB1
 70
     6
  9
$SURFTAB2
 70
     6
  9
$SURFTYPE
 70
     6
  9
$SURFU
 70
     6
  9
$SURFV
 70
     6
  9
$UCSNAME
  2

  9
$UCSORG
 10
0.0
 20
0.0
 30
0.0
  9
$UCSXDIR
 10
1.0
 20
0.0
 30
0.0
  9
$UCSYDIR
 10
0.0
 20
1.0
 30
0.0
  9
$PUCSNAME
  2

  9
$PUCSORG
 10
0.0
 20
0.0
 30
0.0
  9
$PUCSXDIR
 10
1.0
 20
0.0
 30
0.0
  9
$PUCSYDIR
 10
0.0
 20
1.0
 30
0.0
  9
$USERI1
 70
     0
  9
$USERI2
 70
     0
  9
$USERI3
 70
     0
  9
$USERI4
 70
     0
  9
$USERI5
 70
     0
  9
$USERR1
 40
0.0
  9
$USERR2
 40
0.0
  9
$USERR3
 40
0.0
  9
$USERR4
 40
0.0
  9
$USERR5
 40
0.0
  9
$WORLDVIEW
 70
     1
  9
$SHADEDGE
 70
     3
  9
$SHADEDIF
 70
    70
  9
$TILEMODE
 70
     1
  9
$MAXACTVP
 70
    64
  9
$PINSBASE
 10
0.0
 20
0.0
 30
0.0
  9
$PLIMCHECK
 70
     0
  9
$PEXTMIN
 10
1.000000000000000E+20
 20
1.000000000000000E+20
 30
1.000000000000000E+20
  9
$PEXTMAX
 10
-1.000000000000000E+20
 20
-1.000000000000000E+20
 30
-1.000000000000000E+20
  9
$PLIMMIN
 10
0.0
 20
0.0
  9
$PLIMMAX
 10
12.0
 20
9.0
  9
$UNITMODE
 70
     0
  9
$VISRETAIN
 70
     0
  9
$PLINEGEN
 70
     1
  9
$PSLTSCALE
 70
     0
  9
$TREEDEPTH
 70
  3020
  9
$PICKSTYLE
 70
     1
  9
$CMLSTYLE
  2
STANDARD
  9
$CMLJUST
 70
     0
  9
$CMLSCALE
 40
1.0
  9
$PROXYGRAPHICS
 70
     0
  9
$MEASUREMENT
 70
     1
  0
ENDSEC
  0
SECTION
  2
CLASSES
  0
CLASS
  1
ACDBDICTIONARYWDFLT
  2
AcDbDictionaryWithDefault
  3
ObjectDBX Classes
 90
        0
280
     0
281
     0
  0
CLASS
  1
XRECORD
  2
AcDbXrecord
  3
AutoCAD 2000
 90
        0
280
     0
281
     0
  0
CLASS
  1
LWPOLYLINE
  2
AcDbPolyline
  3
AutoCAD 2000
 90
        0
280
     0
281
     1
  0
CLASS
  1
HATCH
  2
AcDbHatch
  3
AutoCAD 2000
 90
        0
280
     0
281
     1
  0
CLASS
  1
ACDBPLACEHOLDER
  2
AcDbPlaceHolder
  3
ObjectDBX Classes
 90
        0
280
     0
281
     0
  0
CLASS
  1
LAYOUT
  2
AcDbLayout
  3
ObjectDBX Classes
 90
        0
280
     0
281
     0
  0
ENDSEC
  0
SECTION
  2
TABLES
  0
TABLE
  2
VPORT
  5
8
330
0
100
AcDbSymbolTable
 70
     1
  0
VPORT
  5
29
330
8
100
AcDbSymbolTableRecord
100
AcDbViewportTableRecord
  2
*ACTIVE
 70
     0
 10
0.0
 20
0.0
 11
1.0
 21
1.0
 12
0.0
 22
0.0
 13
0.0
 23
0.0
 14
0.5
 24
0.5
 15
0.5
 25
0.5
 16
0.0
 26
0.0
 36
1.0
 17
9.872353406187113
 27
-0.3825176996305189
 37
0.0
 40
71.2935885078318
 41
2.045436227966199
 42
50.0
 43
0.0
 44
0.0
 50
0.0
 51
0.0
 71
     0
 72
  1000
 73
     1
 74
     1
 75
     0
 76
     0
 77
     0
 78
     0
  0
ENDTAB
  0
TABLE
  2
LTYPE
  5
5
330
0
100
AcDbSymbolTable
 70
    28
  0
LTYPE
  5
14
330
5
100
AcDbSymbolTableRecord
100
AcDbLinetypeTableRecord
  2
BYBLOCK
 70
     0
  3

 72
    65
 73
     0
 40
0.0
  0
LTYPE
  5
15
330
5
100
AcDbSymbolTableRecord
100
AcDbLinetypeTableRecord
  2
BYLAYER
 70
     0
  3

 72
    65
 73
     0
 40
0.0
  0
LTYPE
  5
16
330
5
100
AcDbSymbolTableRecord
100
AcDbLinetypeTableRecord
  2
CONTINUOUS
 70
     0
  3
Solid line
 72
    65
 73
     0
 40
0.0
  0
LTYPE
  5
2B
330
5
100
AcDbSymbolTableRecord
100
AcDbLinetypeTableRecord
  2
HIDDENX2
 70
     0
  3
CADPAC LINETYPE
 72
    65
 73
     2
 40
4.242424242424278
 49
3.181818181818208
 74
     0
 49
-1.060606060606069
 74
     0
  0
LTYPE
  5
2C
330
5
100
AcDbSymbolTableRecord
100
AcDbLinetypeTableRecord
  2
HIDDEN
 70
     0
  3
CADPAC LINETYPE
 72
    65
 73
     2
 40
3.181818181818208
 49
2.121212121212139
 74
     0
 49
-1.060606060606069
 74
     0
  0
LTYPE
  5
2D
330
5
100
AcDbSymbolTableRecord
100
AcDbLinetypeTableRecord
  2
HIDDEN2
 70
     0
  3
CADPAC LINETYPE
 72
    65
 73
     2
 40
2.651515151515174
 49
1.590909090909104
 74
     0
 49
-1.060606060606069
 74
     0
  0
LTYPE
  5
2E
330
5
100
AcDbSymbolTableRecord
100
AcDbLinetypeTableRecord
  2
DASHED
 70
     0
  3
CADPAC LINETYPE
 72
    65
 73
     2
 40
2.96969696969699
 49
2.121212121212139
 74
     0
 49
-0.8484848484848513
 74
     0
  0
LTYPE
  5
2F
330
5
100
AcDbSymbolTableRecord
100
AcDbLinetypeTableRecord
  2
DASHED2
 70
     0
  3
CADPAC LINETYPE
 72
    65
 73
     2
 40
1.909090909090942
 49
1.272727272727288
 74
     0
 49
-0.6363636363636545
 74
     0
  0
LTYPE
  5
30
330
5
100
AcDbSymbolTableRecord
100
AcDbLinetypeTableRecord
  2
DASHEDX2
 70
     0
  3
CADPAC LINETYPE
 72
    65
 73
     2
 40
5.090909090909108
 49
4.242424242424256
 74
     0
 49
-0.8484848484848513
 74
     0
  0
LTYPE
  5
31
330
5
100
AcDbSymbolTableRecord
100
AcDbLinetypeTableRecord
  2
DOTX2
 70
     0
  3
CADPAC LINETYPE
 72
    65
 73
     2
 40
1.856060606060606
 49
0.0
 74
     0
 49
-1.856060606060606
 74
     0
  0
LTYPE
  5
32
330
5
100
AcDbSymbolTableRecord
100
AcDbLinetypeTableRecord
  2
DOT
 70
     0
  3
CADPAC LINETYPE
 72
    65
 73
     2
 40
1.484848484848484
 49
0.0
 74
     0
 49
-1.484848484848484
 74
     0
  0
LTYPE
  5
33
330
5
100
AcDbSymbolTableRecord
100
AcDbLinetypeTableRecord
  2
DOT2
 70
     0
  3
CADPAC LINETYPE
 72
    65
 73
     2
 40
1.113636363636363
 49
0.0
 74
     0
 49
-1.113636363636363
 74
     0
  0
LTYPE
  5
34
330
5
100
AcDbSymbolTableRecord
100
AcDbLinetypeTableRecord
  2
CENTERX2
 70
     0
  3
CADPAC LINETYPE
 72
    65
 73
     4
 40
6.363636363636417
 49
2.651515151515174
 74
     0
 49
-1.325757575757587
 74
     0
 49
1.060606060606069
 74
     0
 49
-1.325757575757587
 74
     0
  0
LTYPE
  5
35
330
5
100
AcDbSymbolTableRecord
100
AcDbLinetypeTableRecord
  2
CENTER
 70
     0
  3
CADPAC LINETYPE
 72
    65
 73
     4
 40
4.87878787878792
 49
2.121212121212139
 74
     0
 49
-1.060606060606069
 74
     0
 49
0.6363636363636417
 74
     0
 49
-1.060606060606069
 74
     0
  0
LTYPE
  5
36
330
5
100
AcDbSymbolTableRecord
100
AcDbLinetypeTableRecord
  2
CENTER2
 70
     0
  3
CADPAC LINETYPE
 72
    65
 73
     4
 40
3.393939393939422
 49
1.590909090909104
 74
     0
 49
-0.7954545454545521
 74
     0
 49
0.2121212121212139
 74
     0
 49
-0.7954545454545521
 74
     0
  0
LTYPE
  5
37
330
5
100
AcDbSymbolTableRecord
100
AcDbLinetypeTableRecord
  2
DASHDOTX2
 70
     0
  3
CADPAC LINETYPE
 72
    65
 73
     4
 40
10.18181818181822
 49
5.090909090909108
 74
     0
 49
-1.696969696969703
 74
     0
 49
1.696969696969703
 74
     0
 49
-1.696969696969703
 74
     0
  0
LTYPE
  5
38
330
5
100
AcDbSymbolTableRecord
100
AcDbLinetypeTableRecord
  2
DASHDOT
 70
     0
  3
CADPAC LINETYPE
 72
    65
 73
     4
 40
5.090909090909108
 49
2.545454545454554
 74
     0
 49
-0.8484848484848513
 74
     0
 49
0.8484848484848513
 74
     0
 49
-0.8484848484848513
 74
     0
  0
LTYPE
  5
39
330
5
100
AcDbSymbolTableRecord
100
AcDbLinetypeTableRecord
  2
DASHDOT2
 70
     0
  3
CADPAC LINETYPE
 72
    65
 73
     4
 40
3.266666666666677
 49
1.909090909090915
 74
     0
 49
-0.6363636363636385
 74
     0
 49
0.0848484848484851
 74
     0
 49
-0.6363636363636385
 74
     0
  0
LTYPE
  5
3A
330
5
100
AcDbSymbolTableRecord
100
AcDbLinetypeTableRecord
  2
DIVIDEX2
 70
     0
  3
CADPAC LINETYPE
 72
    65
 73
     6
 40
13.57575757575762
 49
5.090909090909108
 74
     0
 49
-1.696969696969703
 74
     0
 49
1.696969696969703
 74
     0
 49
-1.696969696969703
 74
     0
 49
1.696969696969703
 74
     0
 49
-1.696969696969703
 74
     0
  0
LTYPE
  5
3B
330
5
100
AcDbSymbolTableRecord
100
AcDbLinetypeTableRecord
  2
DIVIDE
 70
     0
  3
CADPAC LINETYPE
 72
    65
 73
     6
 40
6.78787878787881
 49
2.545454545454554
 74
     0
 49
-0.8484848484848513
 74
     0
 49
0.8484848484848513
 74
     0
 49
-0.8484848484848513
 74
     0
 49
0.8484848484848513
 74
     0
 49
-0.8484848484848513
 74
     0
  0
LTYPE
  5
3C
330
5
100
AcDbSymbolTableRecord
100
AcDbLinetypeTableRecord
  2
DIVIDE2
 70
     0
  3
CADPAC LINETYPE
 72
    65
 73
     6
 40
5.090909090909108
 49
1.909090909090915
 74
     0
 49
-0.6363636363636385
 74
     0
 49
0.6363636363636385
 74
     0
 49
-0.6363636363636385
 74
     0
 49
0.6363636363636385
 74
     0
 49
-0.6363636363636385
 74
     0
  0
LTYPE
  5
3D
330
5
100
AcDbSymbolTableRecord
100
AcDbLinetypeTableRecord
  2
BORDERX2
 70
     0
  3
CADPAC LINETYPE
 72
    65
 73
     6
 40
9.280303030303108
 49
2.651515151515174
 74
     0
 49
-1.325757575757587
 74
     0
 49
2.651515151515174
 74
     0
 49
-1.325757575757587
 74
     0
 49
0.0
 74
     0
 49
-1.325757575757587
 74
     0
  0
LTYPE
  5
3E
330
5
100
AcDbSymbolTableRecord
100
AcDbLinetypeTableRecord
  2
BORDER
 70
     0
  3
CADPAC LINETYPE
 72
    65
 73
     6
 40
7.424242424242486
 49
2.121212121212139
 74
     0
 49
-1.060606060606069
 74
     0
 49
2.121212121212139
 74
     0
 49
-1.060606060606069
 74
     0
 49
0.0
 74
     0
 49
-1.060606060606069
 74
     0
  0
LTYPE
  5
3F
330
5
100
AcDbSymbolTableRecord
100
AcDbLinetypeTableRecord
  2
BORDER2
 70
     0
  3
CADPAC LINETYPE
 72
    65
 73
     6
 40
5.515151515151565
 49
1.696969696969703
 74
     0
 49
-1.060606060606069
 74
     0
 49
0.6363636363636545
 74
     0
 49
-1.060606060606069
 74
     0
 49
0.0
 74
     0
 49
-1.060606060606069
 74
     0
  0
LTYPE
  5
40
330
5
100
AcDbSymbolTableRecord
100
AcDbLinetypeTableRecord
  2
PHANTOMX2
 70
     0
  3
CADPAC LINETYPE
 72
    65
 73
     6
 40
7.954545454545521
 49
2.651515151515174
 74
     0
 49
-1.060606060606069
 74
     0
 49
1.060606060606069
 74
     0
 49
-1.060606060606069
 74
     0
 49
1.060606060606069
 74
     0
 49
-1.060606060606069
 74
     0
  0
LTYPE
  5
41
330
5
100
AcDbSymbolTableRecord
100
AcDbLinetypeTableRecord
  2
PHANTOM
 70
     0
  3
CADPAC LINETYPE
 72
    65
 73
     6
 40
6.575757575757631
 49
2.121212121212139
 74
     0
 49
-1.060606060606069
 74
     0
 49
0.6363636363636417
 74
     0
 49
-1.060606060606069
 74
     0
 49
0.6363636363636417
 74
     0
 49
-1.060606060606069
 74
     0
  0
LTYPE
  5
42
330
5
100
AcDbSymbolTableRecord
100
AcDbLinetypeTableRecord
  2
PHANTOM2
 70
     0
  3
CADPAC LINETYPE
 72
    65
 73
     6
 40
5.621212121212167
 49
1.590909090909104
 74
     0
 49
-1.060606060606069
 74
     0
 49
0.4242424242424278
 74
     0
 49
-1.060606060606069
 74
     0
 49
0.4242424242424278
 74
     0
 49
-1.060606060606069
 74
     0
  0
LTYPE
  5
43
330
5
100
AcDbSymbolTableRecord
100
AcDbLinetypeTableRecord
  2
ACAD_ISO06W100
 70
     0
  3
CADPAC LINETYPE
 72
    65
 73
     8
 40
11.24242424242435
 49
5.090909090909108
 74
     0
 49
-1.060606060606069
 74
     0
 49
0.6363636363636545
 74
     0
 49
-1.060606060606069
 74
     0
 49
0.6363636363636545
 74
     0
 49
-1.060606060606069
 74
     0
 49
0.6363636363636545
 74
     0
 49
-1.060606060606069
 74
     0
  0
LTYPE
  5
44
330
5
100
AcDbSymbolTableRecord
100
AcDbLinetypeTableRecord
  2
ACAD_ISO13W100
 70
     0
  3
CADPAC LINETYPE
 72
    65
 73
     8
 40
8.484848484848556
 49
2.121212121212139
 74
     0
 49
-1.060606060606069
 74
     0
 49
2.121212121212139
 74
     0
 49
-1.060606060606069
 74
     0
 49
0.0
 74
     0
 49
-1.060606060606069
 74
     0
 49
0.0
 74
     0
 49
-1.060606060606069
 74
     0
  0
LTYPE
  5
45
330
5
100
AcDbSymbolTableRecord
100
AcDbLinetypeTableRecord
  2
ACAD_ISO14W100
 70
     0
  3
CADPAC LINETYPE
 72
    65
 73
     8
 40
6.363636363636417
 49
2.121212121212139
 74
     0
 49
-1.060606060606069
 74
     0
 49
0.0
 74
     0
 49
-1.060606060606069
 74
     0
 49
0.0
 74
     0
 49
-1.060606060606069
 74
     0
 49
0.0
 74
     0
 49
-1.060606060606069
 74
     0
  0
ENDTAB
  0
TABLE
  2
LAYER
  5
2
330
0
100
AcDbSymbolTable
 70
     5
  0
LAYER
  5
10
330
2
100
AcDbSymbolTableRecord
100
AcDbLayerTableRecord
  2
0
 70
     0
 62
     7
  6
CONTINUOUS
  0
LAYER
  5
46
330
2
100
AcDbSymbolTableRecord
100
AcDbLayerTableRecord
  2
LAYER0001
 70
     0
 62
     7
  6
CONTINUOUS
  0
LAYER
  5
47
330
2
100
AcDbSymbolTableRecord
100
AcDbLayerTableRecord
  2
LAYER0004
 70
     0
 62
     7
  6
CONTINUOUS
  0
LAYER
  5
48
330
2
100
AcDbSymbolTableRecord
100
AcDbLayerTableRecord
  2
LAYER0010
 70
     0
 62
     7
  6
CONTINUOUS
  0
LAYER
  5
49
330
2
100
AcDbSymbolTableRecord
100
AcDbLayerTableRecord
  2
LAYER0012
 70
     0
 62
     7
  6
CONTINUOUS
  0
ENDTAB
  0
TABLE
  2
STYLE
  5
3
330
0
100
AcDbSymbolTable
 70
     2
  0
STYLE
  5
11
330
3
100
AcDbSymbolTableRecord
100
AcDbTextStyleTableRecord
  2
STANDARD
 70
     0
 40
0.0
 41
1.0
 50
0.0
 71
     0
 42
0.2
  3
txt
  4

  0
STYLE
  5
A5
330
3
100
AcDbSymbolTableRecord
100
AcDbTextStyleTableRecord
  2
FDASTYLE0
 70
     0
 40
2.666666666666667
 41
0.7999999999999998
 50
0.0
 71
     0
 42
0.2
  3
txt.shx
  4
bigfont
  0
ENDTAB
  0
TABLE
  2
VIEW
  5
6
330
0
100
AcDbSymbolTable
 70
     0
  0
ENDTAB
  0
TABLE
  2
UCS
  5
7
330
0
100
AcDbSymbolTable
 70
     0
  0
ENDTAB
  0
TABLE
  2
APPID
  5
9
330
0
100
AcDbSymbolTable
 70
     2
  0
APPID
  5
12
330
9
100
AcDbSymbolTableRecord
100
AcDbRegAppTableRecord
  2
ACAD
 70
     0
  0
APPID
  5
2A
330
9
100
AcDbSymbolTableRecord
100
AcDbRegAppTableRecord
  2
DAFUSIONOUT
 70
     0
  0
ENDTAB
  0
TABLE
  2
DIMSTYLE
  5
A
330
0
100
AcDbSymbolTable
 70
     1
  0
DIMSTYLE
105
27
330
A
100
AcDbSymbolTableRecord
100
AcDbDimStyleTableRecord
  2
STANDARD
 70
     0
  3

  4

  5

  6

  7

 40
1.0
 41
0.18
 42
0.0625
 43
0.38
 44
0.18
 45
0.0
 46
0.0
 47
0.0
 48
0.0
140
0.18
141
0.09
142
0.0
143
25.4
144
1.0
145
0.0
146
1.0
147
0.09
 71
     0
 72
     0
 73
     1
 74
     1
 75
     0
 76
     0
 77
     0
 78
     0
170
     0
171
     2
172
     0
173
     0
174
     0
175
     0
176
     0
177
     0
178
     0
270
     2
271
     4
272
     4
273
     2
274
     2
340
11
275
     0
280
     0
281
     0
282
     0
283
     1
284
     0
285
     0
286
     0
287
     3
288
     0
  0
ENDTAB
  0
TABLE
  2
BLOCK_RECORD
  5
1
330
0
100
AcDbSymbolTable
 70
    24
  0
BLOCK_RECORD
  5
1F
330
1
100
AcDbSymbolTableRecord
100
AcDbBlockTableRecord
  2
*MODEL_SPACE
  0
BLOCK_RECORD
  5
1B
330
1
100
AcDbSymbolTableRecord
100
AcDbBlockTableRecord
  2
*PAPER_SPACE
  0
BLOCK_RECORD
  5
4B
330
1
100
AcDbSymbolTableRecord
100
AcDbBlockTableRecord
  2
DC_GROUP_1
  0
BLOCK_RECORD
  5
4E
330
1
100
AcDbSymbolTableRecord
100
AcDbBlockTableRecord
  2
DC_GROUP_2
  0
BLOCK_RECORD
  5
51
330
1
100
AcDbSymbolTableRecord
100
AcDbBlockTableRecord
  2
DC_GROUP_3
  0
BLOCK_RECORD
  5
54
330
1
100
AcDbSymbolTableRecord
100
AcDbBlockTableRecord
  2
DC_GROUP_4
  0
BLOCK_RECORD
  5
57
330
1
100
AcDbSymbolTableRecord
100
AcDbBlockTableRecord
  2
DC_GROUP_5
  0
BLOCK_RECORD
  5
5A
330
1
100
AcDbSymbolTableRecord
100
AcDbBlockTableRecord
  2
DA_IMAGEDIMGROUP_1
  0
BLOCK_RECORD
  5
5D
330
1
100
AcDbSymbolTableRecord
100
AcDbBlockTableRecord
  2
DA_IMAGEDIMGROUP_2
  0
BLOCK_RECORD
  5
60
330
1
100
AcDbSymbolTableRecord
100
AcDbBlockTableRecord
  2
DA_IMAGEDIMGROUP_3
  0
BLOCK_RECORD
  5
63
330
1
100
AcDbSymbolTableRecord
100
AcDbBlockTableRecord
  2
DA_IMAGEDIMGROUP_4
  0
BLOCK_RECORD
  5
66
330
1
100
AcDbSymbolTableRecord
100
AcDbBlockTableRecord
  2
DA_IMAGEDIMGROUP_5
  0
BLOCK_RECORD
  5
69
330
1
100
AcDbSymbolTableRecord
100
AcDbBlockTableRecord
  2
DA_IMAGEDIMGROUP_6
  0
BLOCK_RECORD
  5
6C
330
1
100
AcDbSymbolTableRecord
100
AcDbBlockTableRecord
  2
DA_IMAGEDIMGROUP_7
  0
BLOCK_RECORD
  5
6F
330
1
100
AcDbSymbolTableRecord
100
AcDbBlockTableRecord
  2
DA_IMAGEDIMGROUP_8
  0
BLOCK_RECORD
  5
72
330
1
100
AcDbSymbolTableRecord
100
AcDbBlockTableRecord
  2
DA_IMAGEDIMGROUP_9
  0
BLOCK_RECORD
  5
75
330
1
100
AcDbSymbolTableRecord
100
AcDbBlockTableRecord
  2
DA_IMAGEDIMGROUP_10
  0
BLOCK_RECORD
  5
78
330
1
100
AcDbSymbolTableRecord
100
AcDbBlockTableRecord
  2
DA_IMAGEDIMGROUP_11
  0
BLOCK_RECORD
  5
7B
330
1
100
AcDbSymbolTableRecord
100
AcDbBlockTableRecord
  2
DA_IMAGEDIMGROUP_12
  0
BLOCK_RECORD
  5
7E
330
1
100
AcDbSymbolTableRecord
100
AcDbBlockTableRecord
  2
DA_IMAGEDIMGROUP_13
  0
BLOCK_RECORD
  5
81
330
1
100
AcDbSymbolTableRecord
100
AcDbBlockTableRecord
  2
DA_IMAGEDIMGROUP_14
  0
BLOCK_RECORD
  5
84
330
1
100
AcDbSymbolTableRecord
100
AcDbBlockTableRecord
  2
DA_IMAGEDIMGROUP_15
  0
BLOCK_RECORD
  5
87
330
1
100
AcDbSymbolTableRecord
100
AcDbBlockTableRecord
  2
DC_GROUP_6
  0
BLOCK_RECORD
  5
8A
330
1
100
AcDbSymbolTableRecord
100
AcDbBlockTableRecord
  2
DC_GROUP_7
  0
BLOCK_RECORD
  5
9C
330
1
100
AcDbSymbolTableRecord
100
AcDbBlockTableRecord
  2
_OPEN30
  0
ENDTAB
  0
ENDSEC
  0
SECTION
  2
BLOCKS
  0
BLOCK
  5
20
330
1F
100
AcDbEntity
  8
0
100
AcDbBlockBegin
  2
*MODEL_SPACE
 70
     0
 71
     0
 10
0.0
 20
0.0
 30
0.0
  3
*MODEL_SPACE
  1

  0
ENDBLK
  5
21
330
1F
100
AcDbEntity
  8
0
100
AcDbBlockEnd
  0
BLOCK
  5
1C
330
1B
100
AcDbEntity
 67
     1
  8
0
100
AcDbBlockBegin
  2
*PAPER_SPACE
 70
     0
 71
     0
 10
0.0
 20
0.0
 30
0.0
  3
*PAPER_SPACE
  1

  0
ENDBLK
  5
1D
330
1B
100
AcDbEntity
 67
     1
  8
0
100
AcDbBlockEnd
  0
BLOCK
  5
4C
330
4B
100
AcDbEntity
  8
0
100
AcDbBlockBegin
  2
DC_GROUP_1
 70
     0
 71
     0
 10
0.0
 20
0.0
 30
0.0
  3
DC_GROUP_1
  1

  0
CIRCLE
  5
8D
330
4B
100
AcDbEntity
  8
0
  6
CONTINUOUS
 62
     3
100
AcDbCircle
 10
10.35661267482186
 20
6.665319804208611
 30
0.0
 40
1.5
  0
LINE
  5
8E
330
4B
100
AcDbEntity
  8
0
  6
CONTINUOUS
 62
     3
100
AcDbLine
 10
11.05086296907775
 20
7.359570098464491
 30
0.0
 11
9.662362380565984
 21
5.971069509952731
 31
0.0
  0
LINE
  5
8F
330
4B
100
AcDbEntity
  8
0
  6
CONTINUOUS
 62
     3
100
AcDbLine
 10
9.662362380565984
 20
7.359570098464491
 30
0.0
 11
11.05086296907775
 21
5.971069509952731
 31
0.0
  0
ENDBLK
  5
4D
330
4B
100
AcDbEntity
  8
0
100
AcDbBlockEnd
  0
BLOCK
  5
4F
330
4E
100
AcDbEntity
  8
0
100
AcDbBlockBegin
  2
DC_GROUP_2
 70
     0
 71
     0
 10
0.0
 20
0.0
 30
0.0
  3
DC_GROUP_2
  1

  0
CIRCLE
  5
90
330
4E
100
AcDbEntity
  8
0
  6
CONTINUOUS
 62
     3
100
AcDbCircle
 10
-51.3895923373122
 20
12.32217405370098
 30
0.0
 40
1.005000000000003
  0
CIRCLE
  5
91
330
4E
100
AcDbEntity
  8
0
  6
CONTINUOUS
 62
     9
100
AcDbCircle
 10
-51.3895923373122
 20
12.32217405370098
 30
0.0
 40
1.25
  0
ENDBLK
  5
50
330
4E
100
AcDbEntity
  8
0
100
AcDbBlockEnd
  0
BLOCK
  5
52
330
51
100
AcDbEntity
  8
0
100
AcDbBlockBegin
  2
DC_GROUP_3
 70
     0
 71
     0
 10
0.0
 20
0.0
 30
0.0
  3
DC_GROUP_3
  1

  0
CIRCLE
  5
92
330
51
100
AcDbEntity
  8
0
  6
CONTINUOUS
 62
     3
100
AcDbCircle
 10
-40.07588383832741
 20
12.32217405370098
 30
0.0
 40
1.005000000000003
  0
CIRCLE
  5
93
330
51
100
AcDbEntity
  8
0
  6
CONTINUOUS
 62
     9
100
AcDbCircle
 10
-40.07588383832741
 20
12.32217405370098
 30
0.0
 40
1.25
  0
ENDBLK
  5
53
330
51
100
AcDbEntity
  8
0
100
AcDbBlockEnd
  0
BLOCK
  5
55
330
54
100
AcDbEntity
  8
0
100
AcDbBlockBegin
  2
DC_GROUP_4
 70
     0
 71
     0
 10
0.0
 20
0.0
 30
0.0
  3
DC_GROUP_4
  1

  0
CIRCLE
  5
94
330
54
100
AcDbEntity
  8
0
  6
CONTINUOUS
 62
     3
100
AcDbCircle
 10
-40.07588383832741
 20
1.008465554716242
 30
0.0
 40
1.005000000000003
  0
CIRCLE
  5
95
330
54
100
AcDbEntity
  8
0
  6
CONTINUOUS
 62
     9
100
AcDbCircle
 10
-40.07588383832741
 20
1.008465554716242
 30
0.0
 40
1.25
  0
ENDBLK
  5
56
330
54
100
AcDbEntity
  8
0
100
AcDbBlockEnd
  0
BLOCK
  5
58
330
57
100
AcDbEntity
  8
0
100
AcDbBlockBegin
  2
DC_GROUP_5
 70
     0
 71
     0
 10
0.0
 20
0.0
 30
0.0
  3
DC_GROUP_5
  1

  0
CIRCLE
  5
96
330
57
100
AcDbEntity
  8
0
  6
CONTINUOUS
 62
     3
100
AcDbCircle
 10
-51.3895923373122
 20
1.008465554716242
 30
0.0
 40
1.005000000000003
  0
CIRCLE
  5
97
330
57
100
AcDbEntity
  8
0
  6
CONTINUOUS
 62
     9
100
AcDbCircle
 10
-51.3895923373122
 20
1.008465554716242
 30
0.0
 40
1.25
  0
ENDBLK
  5
59
330
57
100
AcDbEntity
  8
0
100
AcDbBlockEnd
  0
BLOCK
  5
5B
330
5A
100
AcDbEntity
  8
0
100
AcDbBlockBegin
  2
DA_IMAGEDIMGROUP_1
 70
     0
 71
     0
 10
0.0
 20
0.0
 30
0.0
  3
DA_IMAGEDIMGROUP_1
  1

  0
LINE
  5
98
330
5A
100
AcDbEntity
  8
0
  6
CONTINUOUS
 62
     9
100
AcDbLine
 10
-8.560053991844841
 20
4.165319804208618
 30
0.0
 11
-11.89338732517818
 21
4.165319804208618
 31
0.0
  0
LINE
  5
99
330
5A
100
AcDbEntity
  8
0
  6
CONTINUOUS
 62
     9
100
AcDbLine
 10
-8.560053991844841
 20
8.165319804208632
 30
0.0
 11
-11.89338732517818
 21
8.165319804208632
 31
0.0
  0
LINE
  5
9A
330
5A
100
AcDbEntity
  8
0
  6
CONTINUOUS
 62
     9
100
AcDbLine
 10
-11.22672065851151
 20
4.165319804208618
 30
0.0
 11
-11.22672065851151
 21
8.165319804208632
 31
0.0
  0
LINE
  5
9B
330
5A
100
AcDbEntity
  8
0
  6
CONTINUOUS
 62
     9
100
AcDbLine
 10
-11.22672065851151
 20
22.00524468268127
 30
0.0
 11
-11.22672065851151
 21
8.165319804208632
 31
0.0
  0
INSERT
  5
A2
330
5A
100
AcDbEntity
  8
0
 62
     9
100
AcDbBlockReference
  2
_OPEN30
 10
-11.22672065851151
 20
8.165319804208632
 30
0.0
 41
2.000001858549576
 42
1.999992849318975
 50
270.0
  0
LINE
  5
A3
330
5A
100
AcDbEntity
  8
0
  6
CONTINUOUS
 62
     9
100
AcDbLine
 10
-11.22672065851151
 20
0.8319864708752847
 30
0.0
 11
-11.22672065851151
 21
4.165319804208618
 31
0.0
  0
INSERT
  5
A4
330
5A
100
AcDbEntity
  8
0
 62
     9
100
AcDbBlockReference
  2
_OPEN30
 10
-11.22672065851151
 20
4.165319804208618
 30
0.0
 41
2.000001858549576
 42
1.999992849318975
 50
90.0
  0
TEXT
  5
A6
330
5A
100
AcDbEntity
  8
0
 62
     7
100
AcDbText
 10
-11.89338732517818
 20
12.99191134934794
 30
0.0
 40
2.666666666666667
  1
4
 50
90.0
 41
0.7999999999999998
  7
FDASTYLE0
 72
     5
 11
-11.89338732517818
 21
15.12524468268127
 31
0.0
100
AcDbText
  0
TEXT
  5
A7
330
5A
100
AcDbEntity
  8
0
 62
     7
100
AcDbText
 10
-13.62672065851151
 20
15.79191134934794
 30
0.0
 40
1.733333333333333
  1
±0.1
 50
90.0
 41
0.7619047619047622
  7
FDASTYLE0
 72
     5
 11
-13.62672065851151
 21
21.33857801601461
 31
0.0
100
AcDbText
  0
ENDBLK
  5
5C
330
5A
100
AcDbEntity
  8
0
100
AcDbBlockEnd
  0
BLOCK
  5
5E
330
5D
100
AcDbEntity
  8
0
100
AcDbBlockBegin
  2
DA_IMAGEDIMGROUP_2
 70
     0
 71
     0
 10
0.0
 20
0.0
 30
0.0
  3
DA_IMAGEDIMGROUP_2
  1

  0
LINE
  5
A8
330
5D
100
AcDbEntity
  8
0
  6
CONTINUOUS
 62
     9
100
AcDbLine
 10
-8.560053991844841
 20
4.165319804208618
 30
0.0
 11
-17.56005399184484
 21
4.165319804208618
 31
0.0
  0
LINE
  5
A9
330
5D
100
AcDbEntity
  8
0
  6
CONTINUOUS
 62
     9
100
AcDbLine
 10
1.439946008155159
 20
9.165319804208604
 30
0.0
 11
-17.56005399184484
 21
9.165319804208604
 31
0.0
  0
LINE
  5
AA
330
5D
100
AcDbEntity
  8
0
  6
CONTINUOUS
 62
     9
100
AcDbLine
 10
-16.89338732517818
 20
4.165319804208618
 30
0.0
 11
-16.89338732517818
 21
9.165319804208604
 31
0.0
  0
LINE
  5
AB
330
5D
100
AcDbEntity
  8
0
  6
CONTINUOUS
 62
     9
100
AcDbLine
 10
-16.89338732517818
 20
26.91191134934794
 30
0.0
 11
-16.89338732517818
 21
9.165319804208604
 31
0.0
  0
INSERT
  5
AC
330
5D
100
AcDbEntity
  8
0
 62
     9
100
AcDbBlockReference
  2
_OPEN30
 10
-16.89338732517818
 20
9.165319804208604
 30
0.0
 41
2.000001858549576
 42
1.999992849318975
 50
270.0
  0
LINE
  5
AD
330
5D
100
AcDbEntity
  8
0
  6
CONTINUOUS
 62
     9
100
AcDbLine
 10
-16.89338732517818
 20
0.8319864708752847
 30
0.0
 11
-16.89338732517818
 21
4.165319804208618
 31
0.0
  0
INSERT
  5
AE
330
5D
100
AcDbEntity
  8
0
 62
     9
100
AcDbBlockReference
  2
_OPEN30
 10
-16.89338732517818
 20
4.165319804208618
 30
0.0
 41
2.000001858549576
 42
1.999992849318975
 50
90.0
  0
TEXT
  5
AF
330
5D
100
AcDbEntity
  8
0
 62
     7
100
AcDbText
 10
-17.56005399184484
 20
12.99191134934794
 30
0.0
 40
2.666666666666667
  1
φ5
 50
90.0
 41
0.7272727272727272
  7
FDASTYLE0
 72
     5
 11
-17.56005399184484
 21
17.25857801601461
 31
0.0
100
AcDbText
  0
TEXT
  5
B0
330
5D
100
AcDbEntity
  8
0
 62
     7
100
AcDbText
 10
-19.29338732517818
 20
17.92524468268127
 30
0.0
 40
1.733333333333333
  1
　0
 50
90.0
 41
0.7272727272727273
  7
FDASTYLE0
 72
     5
 11
-19.29338732517818
 21
20.69857801601461
 31
0.0
100
AcDbText
  0
TEXT
  5
B1
330
5D
100
AcDbEntity
  8
0
 62
     7
100
AcDbText
 10
-17.42672065851151
 20
17.92524468268127
 30
0.0
 40
1.733333333333333
  1
-0.015
 50
90.0
 41
0.8
  7
FDASTYLE0
 72
     5
 11
-17.42672065851151
 21
26.24524468268128
 31
0.0
100
AcDbText
  0
ENDBLK
  5
5F
330
5D
100
AcDbEntity
  8
0
100
AcDbBlockEnd
  0
BLOCK
  5
61
330
60
100
AcDbEntity
  8
0
100
AcDbBlockBegin
  2
DA_IMAGEDIMGROUP_3
 70
     0
 71
     0
 10
0.0
 20
0.0
 30
0.0
  3
DA_IMAGEDIMGROUP_3
  1

  0
LINE
  5
B2
330
60
100
AcDbEntity
  8
0
  6
CONTINUOUS
 62
     9
100
AcDbLine
 10
4.939946008155157
 20
1.665319804208611
 30
0.0
 11
-23.22672065851151
 21
1.665319804208611
 31
0.0
  0
LINE
  5
B3
330
60
100
AcDbEntity
  8
0
  6
CONTINUOUS
 62
     9
100
AcDbLine
 10
4.939946008155157
 20
11.66531980420863
 30
0.0
 11
-23.22672065851151
 21
11.66531980420863
 31
0.0
  0
LINE
  5
B4
330
60
100
AcDbEntity
  8
0
  6
CONTINUOUS
 62
     9
100
AcDbLine
 10
-22.56005399184484
 20
1.665319804208611
 30
0.0
 11
-22.56005399184484
 21
11.66531980420863
 31
0.0
  0
INSERT
  5
B5
330
60
100
AcDbEntity
  8
0
 62
     9
100
AcDbBlockReference
  2
_OPEN30
 10
-22.56005399184484
 20
1.665319804208611
 30
0.0
 41
2.000001858549576
 42
1.999992849318975
 50
270.0
  0
INSERT
  5
B6
330
60
100
AcDbEntity
  8
0
 62
     9
100
AcDbBlockReference
  2
_OPEN30
 10
-22.56005399184484
 20
11.66531980420863
 30
0.0
 41
2.000001858549576
 42
1.999992849318975
 50
90.0
  0
TEXT
  5
B7
330
60
100
AcDbEntity
  8
0
 62
     7
100
AcDbText
 10
-23.54672065851151
 20
0.271986470875289
 30
0.0
 40
2.666666666666667
  1
φ10
 50
90.0
 41
0.7499999999999999
  7
FDASTYLE0
 72
     5
 11
-23.54672065851151
 21
6.671986470875288
 31
0.0
100
AcDbText
  0
TEXT
  5
B8
330
60
100
AcDbEntity
  8
0
 62
     7
100
AcDbText
 10
-25.28005399184485
 20
7.338653137541955
 30
0.0
 40
1.733333333333333
  1
　0
 50
90.0
 41
0.7272727272727271
  7
FDASTYLE0
 72
     5
 11
-25.28005399184485
 21
10.11198647087529
 31
0.0
100
AcDbText
  0
TEXT
  5
B9
330
60
100
AcDbEntity
  8
0
 62
     7
100
AcDbText
 10
-23.41338732517818
 20
7.338653137541955
 30
0.0
 40
1.733333333333333
  1
-0.05
 50
90.0
 41
0.7999999999999998
  7
FDASTYLE0
 72
     5
 11
-23.41338732517818
 21
14.27198647087529
 31
0.0
100
AcDbText
  0
ENDBLK
  5
62
330
60
100
AcDbEntity
  8
0
100
AcDbBlockEnd
  0
BLOCK
  5
64
330
63
100
AcDbEntity
  8
0
100
AcDbBlockBegin
  2
DA_IMAGEDIMGROUP_4
 70
     0
 71
     0
 10
0.0
 20
0.0
 30
0.0
  3
DA_IMAGEDIMGROUP_4
  1

  0
LINE
  5
BA
330
63
100
AcDbEntity
  8
0
  6
CONTINUOUS
 62
     9
100
AcDbLine
 10
4.706612674821834
 20
10.73198647087529
 30
0.0
 11
4.706612674821834
 21
26.93198647087527
 31
0.0
  0
LINE
  5
BB
330
63
100
AcDbEntity
  8
0
  6
CONTINUOUS
 62
     9
100
AcDbLine
 10
6.606612674821836
 20
18.03198647087528
 30
0.0
 11
6.606612674821836
 21
26.93198647087527
 31
0.0
  0
LINE
  5
BC
330
63
100
AcDbEntity
  8
0
  6
CONTINUOUS
 62
     9
100
AcDbLine
 10
4.706612674821834
 20
26.2653198042086
 30
0.0
 11
6.606612674821836
 21
26.2653198042086
 31
0.0
  0
LINE
  5
BD
330
63
100
AcDbEntity
  8
0
  6
CONTINUOUS
 62
     9
100
AcDbLine
 10
9.656653569178275
 20
26.2653198042086
 30
0.0
 11
6.606612674821836
 21
26.2653198042086
 31
0.0
  0
INSERT
  5
BE
330
63
100
AcDbEntity
  8
0
 62
     9
100
AcDbBlockReference
  2
_OPEN30
 10
6.606612674821836
 20
26.2653198042086
 30
0.0
 41
2.000001858549576
 42
1.999992849318975
 50
180.0
  0
LINE
  5
BF
330
63
100
AcDbEntity
  8
0
  6
CONTINUOUS
 62
     9
100
AcDbLine
 10
-3.752064422078252
 20
26.2653198042086
 30
0.0
 11
4.706612674821834
 21
26.2653198042086
 31
0.0
  0
INSERT
  5
C0
330
63
100
AcDbEntity
  8
0
 62
     9
100
AcDbBlockReference
  2
_OPEN30
 10
4.706612674821834
 20
26.2653198042086
 30
0.0
 41
2.000001858549576
 42
1.999992849318975
 50
360.0
  0
TEXT
  5
C1
330
63
100
AcDbEntity
  8
0
 62
     7
100
AcDbText
 10
-3.234332890535598
 20
26.93198647087527
 30
0.0
 40
2.666666666666667
  1
1.9
 41
0.8
  7
FDASTYLE0
 72
     5
 11
3.165667109464403
 21
26.93198647087527
 31
0.0
100
AcDbText
  0
ENDBLK
  5
65
330
63
100
AcDbEntity
  8
0
100
AcDbBlockEnd
  0
BLOCK
  5
67
330
66
100
AcDbEntity
  8
0
100
AcDbBlockBegin
  2
DA_IMAGEDIMGROUP_5
 70
     0
 71
     0
 10
0.0
 20
0.0
 30
0.0
  3
DA_IMAGEDIMGROUP_5
  1

  0
LINE
  5
C2
330
66
100
AcDbEntity
  8
0
  6
CONTINUOUS
 62
     9
100
AcDbLine
 10
5.606612674821825
 20
12.3319864708753
 30
0.0
 11
5.606612674821825
 21
21.9653198042086
 31
0.0
  0
LINE
  5
C3
330
66
100
AcDbEntity
  8
0
  6
CONTINUOUS
 62
     9
100
AcDbLine
 10
6.606612674821836
 20
18.03198647087528
 30
0.0
 11
6.606612674821836
 21
21.9653198042086
 31
0.0
  0
LINE
  5
C4
330
66
100
AcDbEntity
  8
0
  6
CONTINUOUS
 62
     9
100
AcDbLine
 10
5.606612674821825
 20
21.29865313754193
 30
0.0
 11
6.606612674821836
 21
21.29865313754193
 31
0.0
  0
LINE
  5
C5
330
66
100
AcDbEntity
  8
0
  6
CONTINUOUS
 62
     9
100
AcDbLine
 10
9.656653569178275
 20
21.29865313754193
 30
0.0
 11
6.606612674821836
 21
21.29865313754193
 31
0.0
  0
INSERT
  5
C6
330
66
100
AcDbEntity
  8
0
 62
     9
100
AcDbBlockReference
  2
_OPEN30
 10
6.606612674821836
 20
21.29865313754193
 30
0.0
 41
2.000001858549576
 42
1.999992849318975
 50
180.0
  0
LINE
  5
C7
330
66
100
AcDbEntity
  8
0
  6
CONTINUOUS
 62
     9
100
AcDbLine
 10
-1.090154581317036
 20
21.29865313754193
 30
0.0
 11
5.606612674821825
 21
21.29865313754193
 31
0.0
  0
INSERT
  5
C8
330
66
100
AcDbEntity
  8
0
 62
     9
100
AcDbBlockReference
  2
_OPEN30
 10
5.606612674821825
 20
21.29865313754193
 30
0.0
 41
2.000001858549576
 42
1.999992849318975
 50
360.0
  0
TEXT
  5
C9
330
66
100
AcDbEntity
  8
0
 62
     7
100
AcDbText
 10
0.6768064650295882
 20
21.9653198042086
 30
0.0
 40
2.666666666666667
  1
1
 41
0.8
  7
FDASTYLE0
 72
     5
 11
2.810139798362922
 21
21.9653198042086
 31
0.0
100
AcDbText
  0
ENDBLK
  5
68
330
66
100
AcDbEntity
  8
0
100
AcDbBlockEnd
  0
BLOCK
  5
6A
330
69
100
AcDbEntity
  8
0
100
AcDbBlockBegin
  2
DA_IMAGEDIMGROUP_6
 70
     0
 71
     0
 10
0.0
 20
0.0
 30
0.0
  3
DA_IMAGEDIMGROUP_6
  1

  0
LINE
  5
CA
330
69
100
AcDbEntity
  8
0
  6
CONTINUOUS
 62
     9
100
AcDbLine
 10
53.10661267482182
 20
-3.801346862458074
 30
0.0
 11
53.10661267482182
 21
-11.66801352912472
 31
0.0
  0
LINE
  5
CB
330
69
100
AcDbEntity
  8
0
  6
CONTINUOUS
 62
     9
100
AcDbLine
 10
51.10661267482179
 20
11.75865313754193
 30
0.0
 11
51.10661267482179
 21
-11.66801352912472
 31
0.0
  0
LINE
  5
CC
330
69
100
AcDbEntity
  8
0
  6
CONTINUOUS
 62
     9
100
AcDbLine
 10
51.10661267482179
 20
-11.00134686245806
 30
0.0
 11
53.10661267482182
 21
-11.00134686245806
 31
0.0
  0
LINE
  5
CD
330
69
100
AcDbEntity
  8
0
  6
CONTINUOUS
 62
     9
100
AcDbLine
 10
72.50513267482182
 20
-11.00134686245806
 30
0.0
 11
53.10661267482182
 21
-11.00134686245806
 31
0.0
  0
INSERT
  5
CE
330
69
100
AcDbEntity
  8
0
 62
     9
100
AcDbBlockReference
  2
_OPEN30
 10
53.10661267482182
 20
-11.00134686245806
 30
0.0
 41
2.000001858549576
 42
1.999992849318975
 50
180.0
  0
LINE
  5
CF
330
69
100
AcDbEntity
  8
0
  6
CONTINUOUS
 62
     9
100
AcDbLine
 10
47.77327934148845
 20
-11.00134686245806
 30
0.0
 11
51.10661267482179
 21
-11.00134686245806
 31
0.0
  0
INSERT
  5
D0
330
69
100
AcDbEntity
  8
0
 62
     9
100
AcDbBlockReference
  2
_OPEN30
 10
51.10661267482179
 20
-11.00134686245806
 30
0.0
 41
2.000001858549576
 42
1.999992849318975
 50
360.0
  0
TEXT
  5
D1
330
69
100
AcDbEntity
  8
0
 62
     7
100
AcDbText
 10
55.70513267482182
 20
-10.33468019579139
 30
0.0
 40
2.666666666666667
  1
※3-2
 41
0.7619047619047624
  7
FDASTYLE0
 72
     5
 11
64.23846600815516
 21
-10.33468019579139
 31
0.0
100
AcDbText
  0
TEXT
  5
D2
330
69
100
AcDbEntity
  8
0
 62
     7
100
AcDbText
 10
64.90513267482183
 20
-8.601346862458057
 30
0.0
 40
1.733333333333333
  1
±0.05
 41
0.7692307692307696
  7
FDASTYLE0
 72
     5
 11
71.83846600815517
 21
-8.601346862458057
 31
0.0
100
AcDbText
  0
ENDBLK
  5
6B
330
69
100
AcDbEntity
  8
0
100
AcDbBlockEnd
  0
BLOCK
  5
6D
330
6C
100
AcDbEntity
  8
0
100
AcDbBlockBegin
  2
DA_IMAGEDIMGROUP_7
 70
     0
 71
     0
 10
0.0
 20
0.0
 30
0.0
  3
DA_IMAGEDIMGROUP_7
  1

  0
LINE
  5
D3
330
6C
100
AcDbEntity
  8
0
  6
CONTINUOUS
 62
     9
100
AcDbLine
 10
53.10661267482182
 20
-3.801346862458074
 30
0.0
 11
53.10661267482182
 21
-16.66801352912473
 31
0.0
  0
LINE
  5
D4
330
6C
100
AcDbEntity
  8
0
  6
CONTINUOUS
 62
     9
100
AcDbLine
 10
49.50661267482185
 20
-3.801346862458032
 30
0.0
 11
49.50661267482185
 21
-16.66801352912473
 31
0.0
  0
LINE
  5
D5
330
6C
100
AcDbEntity
  8
0
  6
CONTINUOUS
 62
     9
100
AcDbLine
 10
49.50661267482185
 20
-16.00134686245806
 30
0.0
 11
53.10661267482182
 21
-16.00134686245806
 31
0.0
  0
LINE
  5
D6
330
6C
100
AcDbEntity
  8
0
  6
CONTINUOUS
 62
     9
100
AcDbLine
 10
64.90513267482181
 20
-16.00134686245806
 30
0.0
 11
53.10661267482181
 21
-16.00134686245806
 31
0.0
  0
INSERT
  5
D7
330
6C
100
AcDbEntity
  8
0
 62
     9
100
AcDbBlockReference
  2
_OPEN30
 10
53.10661267482181
 20
-16.00134686245806
 30
0.0
 41
2.000001858549576
 42
1.999992849318975
 50
180.0
  0
LINE
  5
D8
330
6C
100
AcDbEntity
  8
0
  6
CONTINUOUS
 62
     9
100
AcDbLine
 10
46.17327934148851
 20
-16.00134686245806
 30
0.0
 11
49.50661267482185
 21
-16.00134686245806
 31
0.0
  0
INSERT
  5
D9
330
6C
100
AcDbEntity
  8
0
 62
     9
100
AcDbBlockReference
  2
_OPEN30
 10
49.50661267482185
 20
-16.00134686245806
 30
0.0
 41
2.000001858549576
 42
1.999992849318975
 50
360.0
  0
TEXT
  5
DA
330
6C
100
AcDbEntity
  8
0
 62
     7
100
AcDbText
 10
55.70513267482181
 20
-15.33468019579139
 30
0.0
 40
2.666666666666667
  1
※3.6
 41
0.7619047619047618
  7
FDASTYLE0
 72
     5
 11
64.23846600815514
 21
-15.33468019579139
 31
0.0
100
AcDbText
  0
ENDBLK
  5
6E
330
6C
100
AcDbEntity
  8
0
100
AcDbBlockEnd
  0
BLOCK
  5
70
330
6F
100
AcDbEntity
  8
0
100
AcDbBlockBegin
  2
DA_IMAGEDIMGROUP_8
 70
     0
 71
     0
 10
0.0
 20
0.0
 30
0.0
  3
DA_IMAGEDIMGROUP_8
  1

  0
LINE
  5
DB
330
6F
100
AcDbEntity
  8
0
  6
CONTINUOUS
 62
     9
100
AcDbLine
 10
53.10661267482182
 20
-3.801346862458074
 30
0.0
 11
53.10661267482182
 21
-21.66801352912473
 31
0.0
  0
LINE
  5
DC
330
6F
100
AcDbEntity
  8
0
  6
CONTINUOUS
 62
     9
100
AcDbLine
 10
43.90661267482182
 20
3.358653137541958
 30
0.0
 11
43.90661267482182
 21
-21.66801352912473
 31
0.0
  0
LINE
  5
DD
330
6F
100
AcDbEntity
  8
0
  6
CONTINUOUS
 62
     9
100
AcDbLine
 10
43.90661267482182
 20
-21.00134686245806
 30
0.0
 11
53.10661267482182
 21
-21.00134686245806
 31
0.0
  0
LINE
  5
DE
330
6F
100
AcDbEntity
  8
0
  6
CONTINUOUS
 62
     9
100
AcDbLine
 10
71.11846600815514
 20
-21.00134686245806
 30
0.0
 11
53.10661267482181
 21
-21.00134686245806
 31
0.0
  0
INSERT
  5
DF
330
6F
100
AcDbEntity
  8
0
 62
     9
100
AcDbBlockReference
  2
_OPEN30
 10
53.10661267482181
 20
-21.00134686245806
 30
0.0
 41
2.000001858549576
 42
1.999992849318975
 50
180.0
  0
LINE
  5
E0
330
6F
100
AcDbEntity
  8
0
  6
CONTINUOUS
 62
     9
100
AcDbLine
 10
40.57327934148849
 20
-21.00134686245806
 30
0.0
 11
43.90661267482182
 21
-21.00134686245806
 31
0.0
  0
INSERT
  5
E1
330
6F
100
AcDbEntity
  8
0
 62
     9
100
AcDbBlockReference
  2
_OPEN30
 10
43.90661267482182
 20
-21.00134686245806
 30
0.0
 41
2.000001858549576
 42
1.999992849318975
 50
360.0
  0
TEXT
  5
E2
330
6F
100
AcDbEntity
  8
0
 62
     7
100
AcDbText
 10
55.70513267482181
 20
-20.33468019579139
 30
0.0
 40
2.666666666666667
  1
※9.2
 41
0.7619047619047618
  7
FDASTYLE0
 72
     5
 11
64.23846600815514
 21
-20.33468019579139
 31
0.0
100
AcDbText
  0
TEXT
  5
E3
330
6F
100
AcDbEntity
  8
0
 62
     7
100
AcDbText
 10
64.90513267482181
 20
-18.60134686245806
 30
0.0
 40
1.733333333333333
  1
±0.1
 41
0.7619047619047619
  7
FDASTYLE0
 72
     5
 11
70.45179934148848
 21
-18.60134686245806
 31
0.0
100
AcDbText
  0
ENDBLK
  5
71
330
6F
100
AcDbEntity
  8
0
100
AcDbBlockEnd
  0
BLOCK
  5
73
330
72
100
AcDbEntity
  8
0
100
AcDbBlockBegin
  2
DA_IMAGEDIMGROUP_9
 70
     0
 71
     0
 10
0.0
 20
0.0
 30
0.0
  3
DA_IMAGEDIMGROUP_9
  1

  0
LINE
  5
E4
330
72
100
AcDbEntity
  8
0
  6
CONTINUOUS
 62
     9
100
AcDbLine
 10
6.606612674821836
 20
-4.701346862458044
 30
0.0
 11
6.606612674821836
 21
-30.1447692165629
 31
0.0
  0
LINE
  5
E5
330
72
100
AcDbEntity
  8
0
  6
CONTINUOUS
 62
     9
100
AcDbLine
 10
53.10661267482182
 20
-3.801346862458074
 30
0.0
 11
53.10661267482182
 21
-30.1447692165629
 31
0.0
  0
LINE
  5
E6
330
72
100
AcDbEntity
  8
0
  6
CONTINUOUS
 62
     9
100
AcDbLine
 10
6.606612674821836
 20
-29.47810254989624
 30
0.0
 11
53.10661267482182
 21
-29.47810254989624
 31
0.0
  0
INSERT
  5
E7
330
72
100
AcDbEntity
  8
0
 62
     9
100
AcDbBlockReference
  2
_OPEN30
 10
6.606612674821836
 20
-29.47810254989624
 30
0.0
 41
2.000001858549576
 42
1.999992849318975
 50
180.0
  0
INSERT
  5
E8
330
72
100
AcDbEntity
  8
0
 62
     9
100
AcDbBlockReference
  2
_OPEN30
 10
53.10661267482182
 20
-29.47810254989624
 30
0.0
 41
2.000001858549576
 42
1.999992849318975
 50
360.0
  0
TEXT
  5
E9
330
72
100
AcDbEntity
  8
0
 62
     7
100
AcDbText
 10
20.25661267482182
 20
-28.81143588322957
 30
0.0
 40
2.666666666666667
  1
※46.4+0.1
 41
0.7826086956521741
  7
FDASTYLE0
 72
     5
 11
39.45661267482183
 21
-28.81143588322957
 31
0.0
100
AcDbText
  0
ENDBLK
  5
74
330
72
100
AcDbEntity
  8
0
100
AcDbBlockEnd
  0
BLOCK
  5
76
330
75
100
AcDbEntity
  8
0
100
AcDbBlockBegin
  2
DA_IMAGEDIMGROUP_10
 70
     0
 71
     0
 10
0.0
 20
0.0
 30
0.0
  3
DA_IMAGEDIMGROUP_10
  1

  0
LINE
  5
EA
330
75
100
AcDbEntity
  8
0
  6
CONTINUOUS
 62
     9
100
AcDbLine
 10
53.6732793414885
 20
-4.334680195791403
 30
0.0
 11
67.10661267482183
 21
-4.334680195791403
 31
0.0
  0
LINE
  5
EB
330
75
100
AcDbEntity
  8
0
  6
CONTINUOUS
 62
     9
100
AcDbLine
 10
53.6732793414885
 20
17.6653198042086
 30
0.0
 11
67.10661267482183
 21
17.6653198042086
 31
0.0
  0
LINE
  5
EC
330
75
100
AcDbEntity
  8
0
  6
CONTINUOUS
 62
     9
100
AcDbLine
 10
66.43994600815515
 20
-4.334680195791403
 30
0.0
 11
66.43994600815515
 21
17.6653198042086
 31
0.0
  0
INSERT
  5
ED
330
75
100
AcDbEntity
  8
0
 62
     9
100
AcDbBlockReference
  2
_OPEN30
 10
66.43994600815515
 20
-4.334680195791403
 30
0.0
 41
2.000001858549576
 42
1.999992849318975
 50
270.0
  0
INSERT
  5
EE
330
75
100
AcDbEntity
  8
0
 62
     9
100
AcDbBlockReference
  2
_OPEN30
 10
66.43994600815515
 20
17.6653198042086
 30
0.0
 41
2.000001858549576
 42
1.999992849318975
 50
90.0
  0
TEXT
  5
EF
330
75
100
AcDbEntity
  8
0
 62
     7
100
AcDbText
 10
65.77327934148849
 20
0.8439864708752607
 30
0.0
 40
2.666666666666667
  1
φ22
 50
90.0
 41
0.7500000000000007
  7
FDASTYLE0
 72
     5
 11
65.77327934148849
 21
7.243986470875266
 31
0.0
100
AcDbText
  0
TEXT
  5
F0
330
75
100
AcDbEntity
  8
0
 62
     7
100
AcDbText
 10
64.03994600815517
 20
7.910653137541933
 30
0.0
 40
1.733333333333333
  1
±0.2
 50
90.0
 41
0.7619047619047619
  7
FDASTYLE0
 72
     5
 11
64.03994600815517
 21
13.4573198042086
 31
0.0
100
AcDbText
  0
ENDBLK
  5
77
330
75
100
AcDbEntity
  8
0
100
AcDbBlockEnd
  0
BLOCK
  5
79
330
78
100
AcDbEntity
  8
0
100
AcDbBlockBegin
  2
DA_IMAGEDIMGROUP_11
 70
     0
 71
     0
 10
0.0
 20
0.0
 30
0.0
  3
DA_IMAGEDIMGROUP_11
  1

  0
LINE
  5
F1
330
78
100
AcDbEntity
  8
0
  6
CONTINUOUS
 62
     9
100
AcDbLine
 10
53.6732793414885
 20
-3.134680195791407
 30
0.0
 11
60.43994600815515
 21
-3.134680195791407
 31
0.0
  0
LINE
  5
F2
330
78
100
AcDbEntity
  8
0
  6
CONTINUOUS
 62
     9
100
AcDbLine
 10
53.77327934148848
 20
16.46531980420864
 30
0.0
 11
60.43994600815515
 21
16.46531980420864
 31
0.0
  0
LINE
  5
F3
330
78
100
AcDbEntity
  8
0
  6
CONTINUOUS
 62
     9
100
AcDbLine
 10
59.77327934148849
 20
-3.134680195791407
 30
0.0
 11
59.77327934148849
 21
16.46531980420864
 31
0.0
  0
INSERT
  5
F4
330
78
100
AcDbEntity
  8
0
 62
     9
100
AcDbBlockReference
  2
_OPEN30
 10
59.77327934148849
 20
-3.134680195791407
 30
0.0
 41
2.000001858549576
 42
1.999992849318975
 50
270.0
  0
INSERT
  5
F5
330
78
100
AcDbEntity
  8
0
 62
     9
100
AcDbBlockReference
  2
_OPEN30
 10
59.77327934148849
 20
16.46531980420864
 30
0.0
 41
2.000001858549576
 42
1.999992849318975
 50
90.0
  0
TEXT
  5
F6
330
78
100
AcDbEntity
  8
0
 62
     7
100
AcDbText
 10
59.10661267482183
 20
-3.233346862458054
 30
0.0
 40
2.666666666666667
  1
φ19.6
 50
90.0
 41
0.7692307692307696
  7
FDASTYLE0
 72
     5
 11
59.10661267482183
 21
7.433319804208617
 31
0.0
100
AcDbText
  0
TEXT
  5
F7
330
78
100
AcDbEntity
  8
0
 62
     7
100
AcDbText
 10
57.37327934148849
 20
8.099986470875283
 30
0.0
 40
1.733333333333333
  1
+0.013
 50
90.0
 41
0.8
  7
FDASTYLE0
 72
     5
 11
57.37327934148849
 21
16.41998647087528
 31
0.0
100
AcDbText
  0
TEXT
  5
F8
330
78
100
AcDbEntity
  8
0
 62
     7
100
AcDbText
 10
59.23994600815516
 20
8.099986470875283
 30
0.0
 40
1.733333333333333
  1
　0
 50
90.0
 41
0.7272727272727273
  7
FDASTYLE0
 72
     5
 11
59.23994600815516
 21
10.87331980420862
 31
0.0
100
AcDbText
  0
ENDBLK
  5
7A
330
78
100
AcDbEntity
  8
0
100
AcDbBlockEnd
  0
BLOCK
  5
7C
330
7B
100
AcDbEntity
  8
0
100
AcDbBlockBegin
  2
DA_IMAGEDIMGROUP_12
 70
     0
 71
     0
 10
0.0
 20
0.0
 30
0.0
  3
DA_IMAGEDIMGROUP_12
  1

  0
LINE
  5
F9
330
7B
100
AcDbEntity
  8
0
  6
CONTINUOUS
 62
     9
100
AcDbLine
 10
-7.893387325178175
 20
3.498653137541952
 30
0.0
 11
-7.893387325178175
 21
-11.66801352912472
 31
0.0
  0
LINE
  5
FA
330
7B
100
AcDbEntity
  8
0
  6
CONTINUOUS
 62
     9
100
AcDbLine
 10
2.106612674821825
 20
7.498653137541952
 30
0.0
 11
2.106612674821825
 21
-11.66801352912472
 31
0.0
  0
LINE
  5
FB
330
7B
100
AcDbEntity
  8
0
  6
CONTINUOUS
 62
     9
100
AcDbLine
 10
-7.893387325178175
 20
-11.00134686245805
 30
0.0
 11
2.106612674821825
 21
-11.00134686245805
 31
0.0
  0
INSERT
  5
FC
330
7B
100
AcDbEntity
  8
0
 62
     9
100
AcDbBlockReference
  2
_OPEN30
 10
-7.893387325178175
 20
-11.00134686245805
 30
0.0
 41
2.000001858549576
 42
1.999992849318975
 50
180.0
  0
INSERT
  5
FD
330
7B
100
AcDbEntity
  8
0
 62
     9
100
AcDbBlockReference
  2
_OPEN30
 10
2.106612674821825
 20
-11.00134686245805
 30
0.0
 41
2.000001858549576
 42
1.999992849318975
 50
360.0
  0
TEXT
  5
FE
330
7B
100
AcDbEntity
  8
0
 62
     7
100
AcDbText
 10
-5.026720658511508
 20
-10.33468019579139
 30
0.0
 40
2.666666666666667
  1
10
 41
0.7999999999999998
  7
FDASTYLE0
 72
     5
 11
-0.7600539918448415
 21
-10.33468019579139
 31
0.0
100
AcDbText
  0
ENDBLK
  5
7D
330
7B
100
AcDbEntity
  8
0
100
AcDbBlockEnd
  0
BLOCK
  5
7F
330
7E
100
AcDbEntity
  8
0
100
AcDbBlockBegin
  2
DA_IMAGEDIMGROUP_13
 70
     0
 71
     0
 10
0.0
 20
0.0
 30
0.0
  3
DA_IMAGEDIMGROUP_13
  1

  0
LINE
  5
FF
330
7E
100
AcDbEntity
  8
0
  6
CONTINUOUS
 62
     9
100
AcDbLine
 10
-56.59692782444098
 20
17.52950954082973
 30
0.0
 11
-53.0984228092135
 21
14.03100452560226
 31
0.0
  0
LINE
  5
100
330
7E
100
AcDbEntity
  8
0
  6
CONTINUOUS
 62
     9
100
AcDbLine
 10
-61.09702255754402
 20
6.665319804208609
 30
0.0
 11
-59.61882833881769
 21
6.665319804208611
 31
0.0
  0
ARC
  5
101
330
7E
100
AcDbEntity
  8
0
  6
CONTINUOUS
 62
     9
100
AcDbCircle
 10
-45.73273808781983
 20
6.665319804208608
 30
0.0
 40
14.69761780305752
100
AcDbArc
 50
135.0000000000001
 51
180.0
  0
INSERT
  5
102
330
7E
100
AcDbEntity
  8
0
 62
     9
100
AcDbBlockReference
  2
_OPEN30
 10
-56.12552330364995
 20
17.0581050200387
 30
0.0
 41
2.000001858549576
 42
1.999992849318975
 50
48.89830625855622
  0
INSERT
  5
103
330
7E
100
AcDbEntity
  8
0
 62
     9
100
AcDbBlockReference
  2
_OPEN30
 10
-60.43035589087736
 20
6.665319804208609
 30
0.0
 41
2.000001858549576
 42
1.999992849318975
 50
266.1016937414438
  0
TEXT
  5
104
330
7E
100
AcDbEntity
  8
0
 62
     7
100
AcDbText
 10
-61.15207302464733
 20
9.58856241688018
 30
0.0
 40
2.666666666666667
  1
45°
 50
67.50000000000003
 41
0.7500000000000004
  7
FDASTYLE0
 72
     5
 11
-58.70289905751076
 21
15.50139142495242
 31
0.0
100
AcDbText
  0
ENDBLK
  5
80
330
7E
100
AcDbEntity
  8
0
100
AcDbBlockEnd
  0
BLOCK
  5
82
330
81
100
AcDbEntity
  8
0
100
AcDbBlockBegin
  2
DA_IMAGEDIMGROUP_14
 70
     0
 71
     0
 10
0.0
 20
0.0
 30
0.0
  3
DA_IMAGEDIMGROUP_14
  1

  0
LINE
  5
105
330
81
100
AcDbEntity
  8
0
  6
CONTINUOUS
 62
     9
100
AcDbLine
 10
-34.86854835119863
 20
17.52950954082969
 30
0.0
 11
-38.17380479028364
 21
14.2242531017447
 31
0.0
  0
ARC
  5
106
330
81
100
AcDbEntity
  8
0
  6
CONTINUOUS
 62
     9
100
AcDbCircle
 10
-45.73273808781979
 20
6.665319804208586
 30
0.0
 40
14.69761780305752
100
AcDbArc
 50
44.99999999999987
 51
135.0000000000001
  0
INSERT
  5
107
330
81
100
AcDbEntity
  8
0
 62
     9
100
AcDbBlockReference
  2
_OPEN30
 10
-35.33995287198967
 20
17.05810502003866
 30
0.0
 41
2.000001858549576
 42
1.999992849318975
 50
318.898306258556
  0
INSERT
  5
108
330
81
100
AcDbEntity
  8
0
 62
     9
100
AcDbBlockReference
  2
_OPEN30
 10
-56.12552330364991
 20
17.05810502003867
 30
0.0
 41
2.000001858549576
 42
1.999992849318975
 50
221.101693741444
  0
TEXT
  5
109
330
81
100
AcDbEntity
  8
0
 62
     7
100
AcDbText
 10
-48.93273808781979
 20
22.02960427393278
 30
0.0
 40
2.666666666666667
  1
90°
 41
0.7500000000000007
  7
FDASTYLE0
 72
     5
 11
-42.53273808781979
 21
22.02960427393278
 31
0.0
100
AcDbText
  0
ENDBLK
  5
83
330
81
100
AcDbEntity
  8
0
100
AcDbBlockEnd
  0
BLOCK
  5
85
330
84
100
AcDbEntity
  8
0
100
AcDbBlockBegin
  2
DA_IMAGEDIMGROUP_15
 70
     0
 71
     0
 10
0.0
 20
0.0
 30
0.0
  3
DA_IMAGEDIMGROUP_15
  1

  0
LINE
  5
10A
330
84
100
AcDbEntity
  8
0
  6
CONTINUOUS
 62
     9
100
AcDbLine
 10
-52.91172137448167
 20
3.135135818942466
 30
0.0
 11
-38.55375480115793
 21
10.19550378947476
 31
0.0
  0
LINE
  5
10B
330
84
100
AcDbEntity
  8
0
  6
CONTINUOUS
 62
     9
100
AcDbLine
 10
-24.85185901057216
 20
16.93325635919874
 30
0.0
 11
-38.55375480115793
 21
10.19550378947476
 31
0.0
  0
INSERT
  5
10C
330
84
100
AcDbEntity
  8
0
 62
     9
100
AcDbBlockReference
  2
_OPEN30
 10
-38.55375480115793
 20
10.19550378947476
 30
0.0
 41
2.000001858549576
 42
1.999992849318975
 50
206.1851316670914
  0
LINE
  5
10D
330
84
100
AcDbEntity
  8
0
  6
CONTINUOUS
 62
     9
100
AcDbLine
 10
-55.90296441059078
 20
1.664225825081572
 30
0.0
 11
-52.91172137448167
 21
3.135135818942466
 31
0.0
  0
INSERT
  5
10E
330
84
100
AcDbEntity
  8
0
 62
     9
100
AcDbBlockReference
  2
_OPEN30
 10
-52.91172137448167
 20
3.135135818942466
 30
0.0
 41
2.000001858549576
 42
1.999992849318975
 50
26.18513166709134
  0
TEXT
  5
10F
330
84
100
AcDbEntity
  8
0
 62
     7
100
AcDbText
 10
-35.3866749102704
 20
12.49578885559052
 30
0.0
 40
2.666666666666667
  1
φ16
 50
26.18513166709137
 41
0.75
  7
FDASTYLE0
 72
     5
 11
-29.64348828094091
 21
15.31993604380344
 31
0.0
100
AcDbText
  0
TEXT
  5
110
330
84
100
AcDbEntity
  8
0
 62
     7
100
AcDbText
 10
-29.81011287052675
 20
17.16956442135236
 30
0.0
 40
1.733333333333333
  1
±0.2
 50
26.18513166709137
 41
0.7619047619047619
  7
FDASTYLE0
 72
     5
 11
-24.83268445844119
 21
19.61715865113689
 31
0.0
100
AcDbText
  0
ENDBLK
  5
86
330
84
100
AcDbEntity
  8
0
100
AcDbBlockEnd
  0
BLOCK
  5
88
330
87
100
AcDbEntity
  8
0
100
AcDbBlockBegin
  2
DC_GROUP_6
 70
     0
 71
     0
 10
0.0
 20
0.0
 30
0.0
  3
DC_GROUP_6
  1

  0
LINE
  5
111
330
87
100
AcDbEntity
  8
0
  6
CONTINUOUS
 62
     9
100
AcDbLine
 10
-51.90663709190735
 20
-0.1295874852364856
 30
0.0
 11
-59.81099141454051
 21
-17.93168673604357
 31
0.0
  0
INSERT
  5
112
330
87
100
AcDbEntity
  8
0
 62
     9
100
AcDbBlockReference
  2
_OPEN30
 10
-51.90663709190735
 20
-0.1295874852364856
 30
0.0
 41
2.000001858549576
 42
1.999992849318975
 50
66.05818141794462
  0
LINE
  5
113
330
87
100
AcDbEntity
  8
0
  6
CONTINUOUS
 62
     9
100
AcDbLine
 10
-59.81099141454051
 20
-17.93168673604357
 30
0.0
 11
-6.690007806401248
 21
-17.93168673604357
 31
0.0
  0
TEXT
  5
114
330
87
100
AcDbEntity
  8
0
 62
     7
100
AcDbText
 10
-59.81099141454051
 20
-17.53168673604357
 30
0.0
 40
2.666666666666667
  1
　4-M2.5（P＝0.45）DEPTH　4MAX
 41
0.7692307692307693
  7
FDASTYLE0
 72
     5
 11
-6.477658081207174
 21
-17.53168673604357
 31
0.0
100
AcDbText
  0
ENDBLK
  5
89
330
87
100
AcDbEntity
  8
0
100
AcDbBlockEnd
  0
BLOCK
  5
8B
330
8A
100
AcDbEntity
  8
0
100
AcDbBlockBegin
  2
DC_GROUP_7
 70
     0
 71
     0
 10
0.0
 20
0.0
 30
0.0
  3
DC_GROUP_7
  1

  0
LINE
  5
115
330
8A
100
AcDbEntity
  8
0
  6
CONTINUOUS
 62
     9
100
AcDbLine
 10
-7.893387325178175
 20
8.8319864708753
 30
0.0
 11
-7.893387325178175
 21
31.89865313754194
 31
0.0
  0
LINE
  5
116
330
8A
100
AcDbEntity
  8
0
  6
CONTINUOUS
 62
     9
100
AcDbLine
 10
6.606612674821836
 20
18.03198647087528
 30
0.0
 11
6.606612674821836
 21
31.89865313754194
 31
0.0
  0
LINE
  5
117
330
8A
100
AcDbEntity
  8
0
  6
CONTINUOUS
 62
     9
100
AcDbLine
 10
53.00661267482184
 20
18.33198647087527
 30
0.0
 11
53.00661267482184
 21
25.97495659643366
 31
0.0
  0
LINE
  5
118
330
8A
100
AcDbEntity
  8
0
  6
CONTINUOUS
 62
     9
100
AcDbLine
 10
53.00661267482184
 20
29.66626431826578
 30
0.0
 11
53.00661267482184
 21
31.89865313754194
 31
0.0
  0
LINE
  5
119
330
8A
100
AcDbEntity
  8
0
  6
CONTINUOUS
 62
     9
100
AcDbLine
 10
-7.893387325178175
 20
31.23198647087527
 30
0.0
 11
6.606612674821836
 21
31.23198647087527
 31
0.0
  0
INSERT
  5
11A
330
8A
100
AcDbEntity
  8
0
 62
     9
100
AcDbBlockReference
  2
_OPEN30
 10
-7.893387325178175
 20
31.23198647087527
 30
0.0
 41
2.000001858549576
 42
1.999992849318975
 50
180.0
  0
INSERT
  5
11B
330
8A
100
AcDbEntity
  8
0
 62
     9
100
AcDbBlockReference
  2
_OPEN30
 10
6.606612674821836
 20
31.23198647087527
 30
0.0
 41
2.000001858549576
 42
1.999992849318975
 50
360.0
  0
LINE
  5
11C
330
8A
100
AcDbEntity
  8
0
  6
CONTINUOUS
 62
     9
100
AcDbLine
 10
6.606612674821836
 20
31.23198647087527
 30
0.0
 11
53.00661267482184
 21
31.23198647087527
 31
0.0
  0
INSERT
  5
11D
330
8A
100
AcDbEntity
  8
0
 62
     9
100
AcDbBlockReference
  2
_OPEN30
 10
6.606612674821836
 20
31.23198647087527
 30
0.0
 41
2.000001858549576
 42
1.999992849318975
 50
180.0
  0
INSERT
  5
11E
330
8A
100
AcDbEntity
  8
0
 62
     9
100
AcDbBlockReference
  2
_OPEN30
 10
53.00661267482184
 20
31.23198647087527
 30
0.0
 41
2.000001858549576
 42
1.999992849318975
 50
360.0
  0
TEXT
  5
11F
330
8A
100
AcDbEntity
  8
0
 62
     7
100
AcDbText
 10
-4.910053991844836
 20
31.89865313754194
 30
0.0
 40
2.666666666666667
  1
14.5
 41
0.8
  7
FDASTYLE0
 72
     5
 11
3.623279341488497
 21
31.89865313754194
 31
0.0
100
AcDbText
  0
TEXT
  5
120
330
8A
100
AcDbEntity
  8
0
 62
     7
100
AcDbText
 10
25.53994600815517
 20
31.89865313754194
 30
0.0
 40
2.666666666666667
  1
46.4
 41
0.7999999999999998
  7
FDASTYLE0
 72
     5
 11
34.0732793414885
 21
31.89865313754194
 31
0.0
100
AcDbText
  0
ENDBLK
  5
8C
330
8A
100
AcDbEntity
  8
0
100
AcDbBlockEnd
  0
BLOCK
  5
9D
330
9C
100
AcDbEntity
  8
0
100
AcDbBlockBegin
  2
_OPEN30
 70
     0
 71
     0
 10
0.0
 20
0.0
 30
0.0
  3
_OPEN30
  1

  0
LINE
  5
9F
330
9C
100
AcDbEntity
  8
0
  6
BYBLOCK
 62
     0
100
AcDbLine
 10
-1.0
 20
0.267949
 30
0.0
 11
0.0
 21
0.0
 31
0.0
  0
LINE
  5
A0
330
9C
100
AcDbEntity
  8
0
  6
BYBLOCK
 62
     0
100
AcDbLine
 10
0.0
 20
0.0
 30
0.0
 11
-1.0
 21
-0.267949
 31
0.0
  0
LINE
  5
A1
330
9C
100
AcDbEntity
  8
0
  6
BYBLOCK
 62
     0
100
AcDbLine
 10
0.0
 20
0.0
 30
0.0
 11
-1.0
 21
0.0
 31
0.0
  0
ENDBLK
  5
9E
330
9C
100
AcDbEntity
  8
0
100
AcDbBlockEnd
  0
ENDSEC
  0
SECTION
  2
ENTITIES
  0
LINE
  5
121
330
1F
100
AcDbEntity
  8
0
  6
CENTER
 62
     9
100
AcDbLine
 10
-32.74511580245344
 20
6.665319804208611
 30
0.0
 11
-58.95216167215103
 21
6.665319804208611
 31
0.0
  0
LINE
  5
122
330
1F
100
AcDbEntity
  8
0
  6
CENTER
 62
     9
100
AcDbLine
 10
-45.7327380878198
 20
-6.634979566605278
 30
0.0
 11
-45.7327380878198
 21
19.47986212204907
 31
0.0
  0
CIRCLE
  5
123
330
1F
100
AcDbEntity
  8
0
  6
CENTER
 62
     9
100
AcDbCircle
 10
-45.7327380878198
 20
6.665319804208611
 30
0.0
 40
8.0
  0
LINE
  5
124
330
1F
100
AcDbEntity
  8
0
  6
CENTER
 62
     9
100
AcDbLine
 10
54.6139678861329
 20
6.665319804208611
 30
0.0
 11
-9.17462271789389
 21
6.665319804208618
 31
0.0
  0
LINE
  5
125
330
1F
100
AcDbEntity
  8
0
  6
CENTER
 62
     9
100
AcDbLine
 10
-52.62701828842247
 20
13.55960000481123
 30
0.0
 11
-50.15215547023572
 21
11.08473718662449
 31
0.0
  0
LINE
  5
126
330
1F
100
AcDbEntity
  8
0
  6
CENTER
 62
     9
100
AcDbLine
 10
-41.31332070540387
 20
2.245902421792652
 30
0.0
 11
-38.93935853669959
 21
-0.1280597469116156
 31
0.0
  0
LINE
  5
127
330
1F
100
AcDbEntity
  8
0
  6
CENTER
 62
     9
100
AcDbLine
 10
-52.62701828842243
 20
-0.2289603963940508
 30
0.0
 11
-50.15215547023572
 21
2.245902421792653
 31
0.0
  0
LINE
  5
128
330
1F
100
AcDbEntity
  8
0
  6
CENTER
 62
     9
100
AcDbLine
 10
-41.31332070540387
 20
11.08473718662448
 30
0.0
 11
-38.64520931107467
 21
13.75284858095367
 31
0.0
  0
LINE
  5
129
330
1F
100
AcDbEntity
  8
0
  6
CENTER
 62
     9
100
AcDbLine
 10
51.10661267482179
 20
18.65330453233866
 30
0.0
 11
51.10661267482179
 21
12.4253198042086
 31
0.0
  0
LINE
  5
12A
330
1F
100
AcDbEntity
  8
0
  6
CONTINUOUS
 62
     9
100
AcDbLine
 10
53.10661267482182
 20
-3.134680195791407
 30
0.0
 11
53.10661267482182
 21
16.46531980420864
 31
0.0
  0
LINE
  5
12B
330
1F
100
AcDbEntity
  8
0
  6
CONTINUOUS
 62
     9
100
AcDbLine
 10
78.26644449307962
 20
26.2653198042086
 30
0.0
 11
47.44082090332643
 21
26.2653198042086
 31
0.0
  0
LINE
  5
12C
330
1F
100
AcDbEntity
  8
0
  6
DASHED2
 62
     9
100
AcDbLine
 10
53.00661267482184
 20
-3.134680195791407
 30
0.0
 11
49.50661267482185
 21
-3.134680195791365
 31
0.0
  0
LINE
  5
12D
330
1F
100
AcDbEntity
  8
0
  6
DASHED2
 62
     9
100
AcDbLine
 10
49.50661267482185
 20
-3.134680195791365
 30
0.0
 11
49.50661267482185
 21
16.46531980420859
 31
0.0
  0
LINE
  5
12E
330
1F
100
AcDbEntity
  8
0
  6
DASHED2
 62
     9
100
AcDbLine
 10
43.90661267482182
 20
9.305319804208626
 30
0.0
 11
46.90661267482182
 21
9.305319804208626
 31
0.0
  0
LINE
  5
12F
330
1F
100
AcDbEntity
  8
0
  6
DASHED2
 62
     9
100
AcDbLine
 10
43.90661267482182
 20
8.630319804208614
 30
0.0
 11
46.90661267482182
 21
8.630319804208614
 31
0.0
  0
LINE
  5
130
330
1F
100
AcDbEntity
  8
0
  6
DASHED2
 62
     9
100
AcDbLine
 10
43.90661267482182
 20
4.025319804208625
 30
0.0
 11
46.90661267482182
 21
4.025319804208625
 31
0.0
  0
LINE
  5
131
330
1F
100
AcDbEntity
  8
0
  6
DASHED2
 62
     9
100
AcDbLine
 10
43.90661267482182
 20
4.700319804208636
 30
0.0
 11
46.90661267482182
 21
4.700319804208636
 31
0.0
  0
LINE
  5
132
330
1F
100
AcDbEntity
  8
0
  6
DASHED2
 62
     9
100
AcDbLine
 10
46.90661267482182
 20
4.025319804208625
 30
0.0
 11
46.90661267482182
 21
9.305319804208626
 31
0.0
  0
LINE
  5
133
330
1F
100
AcDbEntity
  8
0
  6
DASHED2
 62
     9
100
AcDbLine
 10
43.90661267482182
 20
4.025319804208625
 30
0.0
 11
43.90661267482182
 21
9.305319804208626
 31
0.0
  0
LINE
  5
134
330
1F
100
AcDbEntity
  8
0
  6
DASHED2
 62
     9
100
AcDbLine
 10
53.00661267482184
 20
16.46531980420864
 30
0.0
 11
49.50661267482185
 21
16.46531980420859
 31
0.0
  0
LINE
  5
135
330
1F
100
AcDbEntity
  8
0
  6
DASHED2
 62
     9
100
AcDbLine
 10
50.10661267482179
 20
13.41531980420863
 30
0.0
 11
52.10661267482179
 21
13.41531980420863
 31
0.0
  0
LINE
  5
136
330
1F
100
AcDbEntity
  8
0
  6
DASHED2
 62
     9
100
AcDbLine
 10
50.05661267482176
 20
16.86531980420863
 30
0.0
 11
49.50661267482177
 21
17.41531980420863
 31
0.0
  0
LINE
  5
137
330
1F
100
AcDbEntity
  8
0
  6
DASHED2
 62
     9
100
AcDbLine
 10
52.15661267482176
 20
16.86531980420863
 30
0.0
 11
52.70661267482177
 21
17.41531980420863
 31
0.0
  0
LINE
  5
138
330
1F
100
AcDbEntity
  8
0
  6
DASHED2
 62
     9
100
AcDbLine
 10
52.15661267482176
 20
16.86531980420863
 30
0.0
 11
50.05661267482176
 21
16.86531980420863
 31
0.0
  0
LINE
  5
139
330
1F
100
AcDbEntity
  8
0
  6
DASHED2
 62
     9
100
AcDbLine
 10
50.10661267482179
 20
16.86531980420863
 30
0.0
 11
50.10661267482179
 21
13.41531980420863
 31
0.0
  0
LINE
  5
13A
330
1F
100
AcDbEntity
  8
0
  6
DASHED2
 62
     9
100
AcDbLine
 10
52.10661267482179
 20
13.41531980420863
 30
0.0
 11
52.10661267482179
 21
16.86531980420863
 31
0.0
  0
LINE
  5
13B
330
1F
100
AcDbEntity
  8
0
  6
DASHED2
 62
     9
100
AcDbLine
 10
49.50661267482177
 20
17.41531980420863
 30
0.0
 11
49.50661267482177
 21
17.66531980420861
 31
0.0
  0
LINE
  5
13C
330
1F
100
AcDbEntity
  8
0
  6
DASHED2
 62
     9
100
AcDbLine
 10
52.70661267482177
 20
17.41531980420863
 30
0.0
 11
52.70661267482177
 21
17.66531980420861
 31
0.0
  0
LINE
  5
13D
330
1F
100
AcDbEntity
  8
0
  6
DASHED2
 62
     9
100
AcDbLine
 10
49.50661267482177
 20
17.41531980420863
 30
0.0
 11
52.70661267482177
 21
17.41531980420863
 31
0.0
  0
LINE
  5
13E
330
1F
100
AcDbEntity
  8
0
  6
CONTINUOUS
 62
     9
100
AcDbLine
 10
51.10661267482179
 20
17.6653198042086
 30
0.0
 11
47.44082090332643
 21
26.2653198042086
 31
0.0
  0
INSERT
  5
13F
330
1F
100
AcDbEntity
  8
0
 62
     9
100
AcDbBlockReference
  2
_OPEN30
 10
51.10661267482179
 20
17.6653198042086
 30
0.0
 41
2.000001858549576
 42
1.999992849318975
 50
293.0863627577771
  0
CIRCLE
  5
140
330
1F
100
AcDbEntity
  8
0
  6
CONTINUOUS
 62
     3
100
AcDbCircle
 10
-45.7327380878198
 20
6.665319804208611
 30
0.0
 40
11.0
  0
LINE
  5
141
330
1F
100
AcDbEntity
  8
0
  6
CONTINUOUS
 62
     3
100
AcDbLine
 10
-44.23273808781967
 20
8.665319804208611
 30
0.0
 11
-47.23273808781991
 21
8.665319804208611
 31
0.0
  0
CIRCLE
  5
142
330
1F
100
AcDbEntity
  8
0
  6
CONTINUOUS
 62
     3
100
AcDbCircle
 10
-45.7327380878198
 20
6.665319804208696
 30
0.0
 40
5.0
  0
CIRCLE
  5
143
330
1F
100
AcDbEntity
  8
0
  6
CONTINUOUS
 62
     3
100
AcDbCircle
 10
-45.7327380878198
 20
6.665319804208696
 30
0.0
 40
2.5
  0
LINE
  5
144
330
1F
100
AcDbEntity
  8
0
  6
CONTINUOUS
 62
     3
100
AcDbLine
 10
6.906612674821819
 20
-4.334680195791375
 30
0.0
 11
53.00661267482184
 21
-4.334680195791403
 31
0.0
  0
LINE
  5
145
330
1F
100
AcDbEntity
  8
0
  6
CONTINUOUS
 62
     3
100
AcDbLine
 10
6.606612674821836
 20
-4.034680195791378
 30
0.0
 11
6.606612674821836
 21
17.36531980420861
 31
0.0
  0
LINE
  5
146
330
1F
100
AcDbEntity
  8
0
  6
CONTINUOUS
 62
     3
100
AcDbLine
 10
53.00661267482184
 20
-4.334680195791403
 30
0.0
 11
53.00661267482184
 21
17.6653198042086
 31
0.0
  0
LINE
  5
147
330
1F
100
AcDbEntity
  8
0
  6
CONTINUOUS
 62
     3
100
AcDbLine
 10
6.906612674821833
 20
17.6653198042086
 30
0.0
 11
6.606612674821836
 21
17.36531980420861
 31
0.0
  0
LINE
  5
148
330
1F
100
AcDbEntity
  8
0
  6
CONTINUOUS
 62
     3
100
AcDbLine
 10
6.906612674821833
 20
17.6653198042086
 30
0.0
 11
53.00661267482184
 21
17.6653198042086
 31
0.0
  0
LINE
  5
149
330
1F
100
AcDbEntity
  8
0
  6
CONTINUOUS
 62
     3
100
AcDbLine
 10
6.906612674821819
 20
-4.334680195791375
 30
0.0
 11
6.606612674821836
 21
-4.034680195791378
 31
0.0
  0
LINE
  5
14A
330
1F
100
AcDbEntity
  8
0
  6
CONTINUOUS
 62
     3
100
AcDbLine
 10
8.306612674821839
 20
17.6653198042086
 30
0.0
 11
8.306612674821825
 21
-4.334680195791375
 31
0.0
  0
LINE
  5
14B
330
1F
100
AcDbEntity
  8
0
  6
CONTINUOUS
 62
     3
100
AcDbLine
 10
6.906612674821833
 20
17.6653198042086
 30
0.0
 11
6.906612674821833
 21
-4.334680195791389
 31
0.0
  0
LINE
  5
14C
330
1F
100
AcDbEntity
  8
0
  6
CONTINUOUS
 62
     3
100
AcDbLine
 10
4.706612674821834
 20
10.06531980420862
 30
0.0
 11
5.106612674821839
 21
10.06531980420862
 31
0.0
  0
LINE
  5
14D
330
1F
100
AcDbEntity
  8
0
  6
CONTINUOUS
 62
     3
100
AcDbLine
 10
4.706612674821834
 20
10.06531980420862
 30
0.0
 11
4.706612674821834
 21
3.26531980420862
 31
0.0
  0
LINE
  5
14E
330
1F
100
AcDbEntity
  8
0
  6
CONTINUOUS
 62
     3
100
AcDbLine
 10
5.106612674821839
 20
10.66531980420862
 30
0.0
 11
5.106612674821839
 21
2.665319804208647
 31
0.0
  0
LINE
  5
14F
330
1F
100
AcDbEntity
  8
0
  6
CONTINUOUS
 62
     3
100
AcDbLine
 10
4.706612674821834
 20
3.26531980420862
 30
0.0
 11
5.106612674821839
 21
3.26531980420862
 31
0.0
  0
CIRCLE
  5
150
330
1F
100
AcDbEntity
  8
0
  6
CONTINUOUS
 62
     3
100
AcDbCircle
 10
-45.7327380878198
 20
6.665319804208568
 30
0.0
 40
3.999999999999922
  0
ARC
  5
151
330
1F
100
AcDbEntity
  8
0
  6
CONTINUOUS
 62
     3
100
AcDbCircle
 10
-45.73273808781983
 20
6.665319804208611
 30
0.0
 40
2.950000000000085
100
AcDbArc
 50
292.9439535565377
 51
607.0560464434636
  0
LINE
  5
152
330
1F
100
AcDbEntity
  8
0
  6
CONTINUOUS
 62
     3
100
AcDbLine
 10
-45.7327380878198
 20
4.165319804208696
 30
0.0
 11
-45.7327380878198
 21
3.015319804208698
 31
0.0
  0
LINE
  5
153
330
1F
100
AcDbEntity
  8
0
  6
CONTINUOUS
 62
     3
100
AcDbLine
 10
-46.3827380878198
 20
3.015319804208698
 30
0.0
 11
-45.08273808781979
 21
3.015319804208698
 31
0.0
  0
LINE
  5
154
330
1F
100
AcDbEntity
  8
0
  6
CONTINUOUS
 62
     3
100
AcDbLine
 10
-44.58273808781979
 20
3.515319804208698
 30
0.0
 11
-44.58273808781979
 21
3.948704262767311
 31
0.0
  0
LINE
  5
155
330
1F
100
AcDbEntity
  8
0
  6
CONTINUOUS
 62
     3
100
AcDbLine
 10
-46.8827380878198
 20
3.515319804208698
 30
0.0
 11
-46.8827380878198
 21
3.948704262767283
 31
0.0
  0
LINE
  5
156
330
1F
100
AcDbEntity
  8
0
  6
CONTINUOUS
 62
     3
100
AcDbLine
 10
-46.3827380878198
 20
3.315319804208702
 30
0.0
 11
-45.08273808781979
 21
3.315319804208702
 31
0.0
  0
LINE
  5
157
330
1F
100
AcDbEntity
  8
0
  6
CONTINUOUS
 62
     3
100
AcDbLine
 10
-46.3827380878198
 20
3.715319804208694
 30
0.0
 11
-45.08273808781979
 21
3.715319804208694
 31
0.0
  0
ARC
  5
158
330
1F
100
AcDbEntity
  8
0
  6
CONTINUOUS
 62
     3
100
AcDbCircle
 10
-45.08273808781979
 20
3.515319804208698
 30
0.0
 40
0.1999999999999993
100
AcDbArc
 50
270.0
 51
450.0
  0
ARC
  5
159
330
1F
100
AcDbEntity
  8
0
  6
CONTINUOUS
 62
     3
100
AcDbCircle
 10
-45.08273808781979
 20
3.515319804208698
 30
0.0
 40
0.5
100
AcDbArc
 50
270.0
 51
360.0
  0
ARC
  5
15A
330
1F
100
AcDbEntity
  8
0
  6
CONTINUOUS
 62
     3
100
AcDbCircle
 10
-46.3827380878198
 20
3.515319804208698
 30
0.0
 40
0.5
100
AcDbArc
 50
180.0
 51
270.0
  0
ARC
  5
15B
330
1F
100
AcDbEntity
  8
0
  6
CONTINUOUS
 62
     3
100
AcDbCircle
 10
-46.3827380878198
 20
3.515319804208698
 30
0.0
 40
0.1999999999999993
100
AcDbArc
 50
90.0
 51
270.0
  0
CIRCLE
  5
15C
330
1F
100
AcDbEntity
  8
0
  6
CONTINUOUS
 62
     3
100
AcDbCircle
 10
-45.81488014023416
 20
6.747461856622937
 30
0.0
 40
10.61817567720007
  0
LINE
  5
15D
330
1F
100
AcDbEntity
  8
LAYER0010
  6
CONTINUOUS
 62
     3
100
AcDbLine
 10
5.106612674821839
 20
10.66531980420862
 30
0.0
 11
5.606612674821839
 21
10.66531980420862
 31
0.0
  0
LINE
  5
15E
330
1F
100
AcDbEntity
  8
LAYER0010
  6
CONTINUOUS
 62
     3
100
AcDbLine
 10
5.106612674821839
 20
2.665319804208647
 30
0.0
 11
5.606612674821839
 21
2.665319804208647
 31
0.0
  0
LINE
  5
15F
330
1F
100
AcDbEntity
  8
LAYER0012
  6
CONTINUOUS
 62
     3
100
AcDbLine
 10
6.606612674821825
 20
11.66531980420863
 30
0.0
 11
5.606612674821825
 21
11.66531980420863
 31
0.0
  0
LINE
  5
160
330
1F
100
AcDbEntity
  8
LAYER0012
  6
CONTINUOUS
 62
     3
100
AcDbLine
 10
6.606612674821825
 20
1.665319804208611
 30
0.0
 11
5.606612674821825
 21
1.665319804208611
 31
0.0
  0
LINE
  5
161
330
1F
100
AcDbEntity
  8
LAYER0012
  6
CONTINUOUS
 62
     3
100
AcDbLine
 10
5.606612674821825
 20
1.665319804208611
 30
0.0
 11
5.606612674821825
 21
11.66531980420863
 31
0.0
  0
LINE
  5
162
330
1F
100
AcDbEntity
  8
LAYER0004
  6
CONTINUOUS
 62
     3
100
AcDbLine
 10
-7.893387325178175
 20
4.165319804208618
 30
0.0
 11
-7.893387325178175
 21
8.165319804208632
 31
0.0
  0
LINE
  5
163
330
1F
100
AcDbEntity
  8
LAYER0004
  6
CONTINUOUS
 62
     3
100
AcDbLine
 10
2.106612674821825
 20
8.165319804208618
 30
0.0
 11
-7.893387325178175
 21
8.165319804208632
 31
0.0
  0
LINE
  5
164
330
1F
100
AcDbEntity
  8
LAYER0004
  6
CONTINUOUS
 62
     3
100
AcDbLine
 10
2.106612674821825
 20
9.165319804208618
 30
0.0
 11
2.106612674821825
 21
8.165319804208618
 31
0.0
  0
LINE
  5
165
330
1F
100
AcDbEntity
  8
LAYER0004
  6
CONTINUOUS
 62
     3
100
AcDbLine
 10
2.106612674821825
 20
9.165319804208604
 30
0.0
 11
4.706612674821834
 21
9.165319804208618
 31
0.0
  0
LINE
  5
166
330
1F
100
AcDbEntity
  8
LAYER0004
  6
CONTINUOUS
 62
     3
100
AcDbLine
 10
-7.893387325178175
 20
4.165319804208618
 30
0.0
 11
4.706612674821834
 21
4.165319804208618
 31
0.0
  0
INSERT
  5
167
330
1F
100
AcDbEntity
  8
0
  6
CONTINUOUS
100
AcDbBlockReference
  2
DC_GROUP_1
 10
0.0
 20
0.0
 30
0.0
  0
INSERT
  5
168
330
1F
100
AcDbEntity
  8
0
  6
CONTINUOUS
100
AcDbBlockReference
  2
DC_GROUP_2
 10
0.0
 20
0.0
 30
0.0
  0
INSERT
  5
169
330
1F
100
AcDbEntity
  8
0
  6
CONTINUOUS
100
AcDbBlockReference
  2
DC_GROUP_3
 10
0.0
 20
0.0
 30
0.0
  0
INSERT
  5
16A
330
1F
100
AcDbEntity
  8
0
  6
CONTINUOUS
100
AcDbBlockReference
  2
DC_GROUP_4
 10
0.0
 20
0.0
 30
0.0
  0
INSERT
  5
16B
330
1F
100
AcDbEntity
  8
0
  6
CONTINUOUS
100
AcDbBlockReference
  2
DC_GROUP_5
 10
0.0
 20
0.0
 30
0.0
  0
INSERT
  5
16C
330
1F
100
AcDbEntity
  8
0
  6
CONTINUOUS
100
AcDbBlockReference
  2
DA_IMAGEDIMGROUP_1
 10
0.0
 20
0.0
 30
0.0
  0
INSERT
  5
16D
330
1F
100
AcDbEntity
  8
0
  6
CONTINUOUS
100
AcDbBlockReference
  2
DA_IMAGEDIMGROUP_2
 10
0.0
 20
0.0
 30
0.0
  0
INSERT
  5
16E
330
1F
100
AcDbEntity
  8
0
  6
CONTINUOUS
100
AcDbBlockReference
  2
DA_IMAGEDIMGROUP_3
 10
0.0
 20
0.0
 30
0.0
  0
INSERT
  5
16F
330
1F
100
AcDbEntity
  8
0
  6
CONTINUOUS
100
AcDbBlockReference
  2
DA_IMAGEDIMGROUP_4
 10
0.0
 20
0.0
 30
0.0
  0
INSERT
  5
170
330
1F
100
AcDbEntity
  8
0
  6
CONTINUOUS
100
AcDbBlockReference
  2
DA_IMAGEDIMGROUP_5
 10
0.0
 20
0.0
 30
0.0
  0
INSERT
  5
171
330
1F
100
AcDbEntity
  8
0
  6
CONTINUOUS
100
AcDbBlockReference
  2
DA_IMAGEDIMGROUP_6
 10
0.0
 20
0.0
 30
0.0
  0
INSERT
  5
172
330
1F
100
AcDbEntity
  8
0
  6
CONTINUOUS
100
AcDbBlockReference
  2
DA_IMAGEDIMGROUP_7
 10
0.0
 20
0.0
 30
0.0
  0
INSERT
  5
173
330
1F
100
AcDbEntity
  8
0
  6
CONTINUOUS
100
AcDbBlockReference
  2
DA_IMAGEDIMGROUP_8
 10
0.0
 20
0.0
 30
0.0
  0
INSERT
  5
174
330
1F
100
AcDbEntity
  8
0
  6
CONTINUOUS
100
AcDbBlockReference
  2
DA_IMAGEDIMGROUP_9
 10
0.0
 20
0.0
 30
0.0
  0
INSERT
  5
175
330
1F
100
AcDbEntity
  8
0
  6
CONTINUOUS
100
AcDbBlockReference
  2
DA_IMAGEDIMGROUP_10
 10
0.0
 20
0.0
 30
0.0
  0
INSERT
  5
176
330
1F
100
AcDbEntity
  8
0
  6
CONTINUOUS
100
AcDbBlockReference
  2
DA_IMAGEDIMGROUP_11
 10
0.0
 20
0.0
 30
0.0
  0
INSERT
  5
177
330
1F
100
AcDbEntity
  8
0
  6
CONTINUOUS
100
AcDbBlockReference
  2
DA_IMAGEDIMGROUP_12
 10
0.0
 20
0.0
 30
0.0
  0
INSERT
  5
178
330
1F
100
AcDbEntity
  8
0
  6
CONTINUOUS
100
AcDbBlockReference
  2
DA_IMAGEDIMGROUP_13
 10
0.0
 20
0.0
 30
0.0
  0
INSERT
  5
179
330
1F
100
AcDbEntity
  8
0
  6
CONTINUOUS
100
AcDbBlockReference
  2
DA_IMAGEDIMGROUP_14
 10
0.0
 20
0.0
 30
0.0
  0
INSERT
  5
17A
330
1F
100
AcDbEntity
  8
0
  6
CONTINUOUS
100
AcDbBlockReference
  2
DA_IMAGEDIMGROUP_15
 10
0.0
 20
0.0
 30
0.0
  0
INSERT
  5
17B
330
1F
100
AcDbEntity
  8
0
  6
CONTINUOUS
100
AcDbBlockReference
  2
DC_GROUP_6
 10
0.0
 20
0.0
 30
0.0
  0
INSERT
  5
17C
330
1F
100
AcDbEntity
  8
0
  6
CONTINUOUS
100
AcDbBlockReference
  2
DC_GROUP_7
 10
0.0
 20
0.0
 30
0.0
  0
TEXT
  5
17D
330
1F
100
AcDbEntity
  8
LAYER0001
 62
     7
100
AcDbText
 10
-33.15091752369428
 20
-35.33035520346964
 30
0.0
 40
2.666666666666667
  1
※　モータ端面からの寸法　Dimension from motor end face
 41
0.7533632286995516
  7
FDASTYLE0
 72
     5
 11
56.44908247630572
 21
-35.33035520346964
 31
0.0
100
AcDbText
  0
TEXT
  5
17E
330
1F
100
AcDbEntity
  8
0
 62
     7
100
AcDbText
 10
55.70513267482182
 20
-24.52818991097923
 30
0.0
 40
2.666666666666667
  1
（ＰＩＮＩＯＮ　ＰＯＳＩＴＩＯＮ）
 41
0.6666666666666669
  7
FDASTYLE0
 72
     5
 11
91.97179934148849
 21
-24.52818991097923
 31
0.0
100
AcDbText
  0
TEXT
  5
17F
330
1F
100
AcDbEntity
  8
0
 62
     7
100
AcDbText
 10
47.65922657038846
 20
26.7653198042086
 30
0.0
 40
2.666666666666667
  1
3-M2(P=0.4)×4L
 41
0.7887323943661974
  7
FDASTYLE0
 72
     5
 11
77.52589323705513
 21
26.7653198042086
 31
0.0
100
AcDbText
  0
VIEWPORT
  5
4A
330
1B
100
AcDbEntity
 67
     1
  8
0
100
AcDbViewport
 10
7.378023781738875
 20
-2.592792993453365
 30
0.0
 40
425.9626533584977
 41
196.4253732600976
 68
     1
 69
     1
1001
ACAD
1000
MVIEW
1002
{
1070
    16
1010
0.0
1020
0.0
1030
0.0
1010
0.0
1020
0.0
1030
1.0
1040
0.0
1040
196.4253732600976
1040
7.378023781738875
1040
-2.592792993453365
1040
50.0
1040
0.0
1040
0.0
1070
     0
1070
   100
1070
     0
1070
     1
1070
     0
1070
     0
1070
     0
1070
     0
1040
0.0
1040
0.0
1040
0.0
1040
0.5
1040
0.5
1040
0.0
1040
0.0
1070
     0
1002
{
1002
}
1002
}
  0
ENDSEC
  0
SECTION
  2
OBJECTS
  0
DICTIONARY
  5
C
330
0
100
AcDbDictionary
  3
ACAD_GROUP
350
D
  3
ACAD_LAYOUT
350
1A
  3
ACAD_MLINESTYLE
350
17
  3
ACAD_PLOTSETTINGS
350
19
  3
ACDBHEADERROUNDTRIPXREC
350
180
  0
DICTIONARY
  5
D
102
{ACAD_REACTORS
330
C
102
}
330
C
100
AcDbDictionary
  0
DICTIONARY
  5
1A
102
{ACAD_REACTORS
330
C
102
}
330
C
100
AcDbDictionary
  0
DICTIONARY
  5
17
102
{ACAD_REACTORS
330
C
102
}
330
C
100
AcDbDictionary
  3
STANDARD
350
18
  0
DICTIONARY
  5
19
102
{ACAD_REACTORS
330
C
102
}
330
C
100
AcDbDictionary
  0
DICTIONARY
  5
180
102
{ACAD_REACTORS
330
C
102
}
330
C
100
AcDbDictionary
  3
CEPSNTYPE
350
189
  3
DIMSTYLEDATA
350
19F
  3
FINGERPRINTGUID
350
18A
  3
HYPERLINKBASE
350
183
  3
INSUNITS
350
188
  3
LAYOUTDICT
350
185
  3
LWETCUNION
350
187
  3
PLOTSETDICT
350
186
  3
PSVPSCALE
350
18C
  3
PUCSBASE
350
18F
  3
PUCSORGBACK
350
195
  3
PUCSORGBOTTOM
350
191
  3
PUCSORGFRONT
350
194
  3
PUCSORGLEFT
350
192
  3
PUCSORGRIGHT
350
193
  3
PUCSORGTOP
350
190
  3
PUCSORTHOREF
350
18D
  3
PUCSORTHOVIEW
350
18E
  3
STYLESHEET
350
184
  3
TSTACKALIGN
350
181
  3
TSTACKSIZE
350
182
  3
UCSBASE
350
198
  3
UCSORGBACK
350
19E
  3
UCSORGBOTTOM
350
19A
  3
UCSORGFRONT
350
19D
  3
UCSORGLEFT
350
19B
  3
UCSORGRIGHT
350
19C
  3
UCSORGTOP
350
199
  3
UCSORTHOREF
350
196
  3
UCSORTHOVIEW
350
197
  3
VERSIONGUID
350
18B
  0
MLINESTYLE
  5
18
102
{ACAD_REACTORS
330
17
102
}
330
17
100
AcDbMlineStyle
  2
Standard
 70
     0
  3

 62
   256
 51
90.0
 52
90.0
 71
     2
 49
0.5
 62
   256
  6
BYLAYER
 49
-0.5
 62
   256
  6
BYLAYER
  0
XRECORD
  5
189
102
{ACAD_REACTORS
330
180
102
}
330
180
100
AcDbXrecord
 90
        0
  0
XRECORD
  5
19F
102
{ACAD_REACTORS
330
180
102
}
330
180
100
AcDbXrecord
1000
DSTYLE
1002
{
1070
   171
 70
     2
1070
   143
 40
25.4
1070
   274
 70
     2
1070
    41
 40
1.666666666666667
1070
   141
 40
0.09
1070
   271
 70
     4
1070
    43
 40
0.38
1070
    44
 40
0.18
1070
   278
 70
    46
1070
    42
 40
0.0625
1070
   147
 40
0.09
1070
    77
 70
     3
1070
   272
 70
     4
1070
    73
 70
     1
1070
   172
 70
     0
1070
    74
 70
     1
1070
   283
 70
     1
1070
   340
340
11
1070
   140
 40
0.18
1070
   284
 70
     0
1070
    78
 70
     0
1002
}
  0
XRECORD
  5
18A
102
{ACAD_REACTORS
330
180
102
}
330
180
100
AcDbXrecord
  1
{7EB39BE7-8DAD-4E93-B78C-5B9E204A589F}
  0
XRECORD
  5
183
102
{ACAD_REACTORS
330
180
102
}
330
180
100
AcDbXrecord
  1

  0
XRECORD
  5
188
102
{ACAD_REACTORS
330
180
102
}
330
180
100
AcDbXrecord
 90
        4
  0
XRECORD
  5
185
102
{ACAD_REACTORS
330
180
102
}
330
180
100
AcDbXrecord
340
1A
  0
XRECORD
  5
187
102
{ACAD_REACTORS
330
180
102
}
330
180
100
AcDbXrecord
 90
    10781
  0
XRECORD
  5
186
102
{ACAD_REACTORS
330
180
102
}
330
180
100
AcDbXrecord
340
19
  0
XRECORD
  5
18C
102
{ACAD_REACTORS
330
180
102
}
330
180
100
AcDbXrecord
 40
0.0
  0
XRECORD
  5
18F
102
{ACAD_REACTORS
330
180
102
}
330
180
100
AcDbXrecord
340
0
  0
XRECORD
  5
195
102
{ACAD_REACTORS
330
180
102
}
330
180
100
AcDbXrecord
 10
0.0
 20
0.0
 30
0.0
  0
XRECORD
  5
191
102
{ACAD_REACTORS
330
180
102
}
330
180
100
AcDbXrecord
 10
0.0
 20
0.0
 30
0.0
  0
XRECORD
  5
194
102
{ACAD_REACTORS
330
180
102
}
330
180
100
AcDbXrecord
 10
0.0
 20
0.0
 30
0.0
  0
XRECORD
  5
192
102
{ACAD_REACTORS
330
180
102
}
330
180
100
AcDbXrecord
 10
0.0
 20
0.0
 30
0.0
  0
XRECORD
  5
193
102
{ACAD_REACTORS
330
180
102
}
330
180
100
AcDbXrecord
 10
0.0
 20
0.0
 30
0.0
  0
XRECORD
  5
190
102
{ACAD_REACTORS
330
180
102
}
330
180
100
AcDbXrecord
 10
0.0
 20
0.0
 30
0.0
  0
XRECORD
  5
18D
102
{ACAD_REACTORS
330
180
102
}
330
180
100
AcDbXrecord
340
0
  0
XRECORD
  5
18E
102
{ACAD_REACTORS
330
180
102
}
330
180
100
AcDbXrecord
 70
     0
  0
XRECORD
  5
184
102
{ACAD_REACTORS
330
180
102
}
330
180
100
AcDbXrecord
  1

  0
XRECORD
  5
181
102
{ACAD_REACTORS
330
180
102
}
330
180
100
AcDbXrecord
 90
        1
  0
XRECORD
  5
182
102
{ACAD_REACTORS
330
180
102
}
330
180
100
AcDbXrecord
 90
       70
  0
XRECORD
  5
198
102
{ACAD_REACTORS
330
180
102
}
330
180
100
AcDbXrecord
340
0
  0
XRECORD
  5
19E
102
{ACAD_REACTORS
330
180
102
}
330
180
100
AcDbXrecord
 10
0.0
 20
0.0
 30
0.0
  0
XRECORD
  5
19A
102
{ACAD_REACTORS
330
180
102
}
330
180
100
AcDbXrecord
 10
0.0
 20
0.0
 30
0.0
  0
XRECORD
  5
19D
102
{ACAD_REACTORS
330
180
102
}
330
180
100
AcDbXrecord
 10
0.0
 20
0.0
 30
0.0
  0
XRECORD
  5
19B
102
{ACAD_REACTORS
330
180
102
}
330
180
100
AcDbXrecord
 10
0.0
 20
0.0
 30
0.0
  0
XRECORD
  5
19C
102
{ACAD_REACTORS
330
180
102
}
330
180
100
AcDbXrecord
 10
0.0
 20
0.0
 30
0.0
  0
XRECORD
  5
199
102
{ACAD_REACTORS
330
180
102
}
330
180
100
AcDbXrecord
 10
0.0
 20
0.0
 30
0.0
  0
XRECORD
  5
196
102
{ACAD_REACTORS
330
180
102
}
330
180
100
AcDbXrecord
340
0
  0
XRECORD
  5
197
102
{ACAD_REACTORS
330
180
102
}
330
180
100
AcDbXrecord
 70
     0
  0
XRECORD
  5
18B
102
{ACAD_REACTORS
330
180
102
}
330
180
100
AcDbXrecord
  1
{FAEB1C32-E019-11D5-929B-00C0DF256EC4}
  0
ENDSEC
  0
EOF
