  0
SECTION
  2
HEADER
  9
$ACADVER
  1
AC1014
  9
$ACADMAINTVER
 70
     9
  9
$DWGCODEPAGE
  3
ANSI_932
  9
$INSBASE
 10
0.0
 20
0.0
 30
0.0
  9
$EXTMIN
 10
-268.0425086687997
 20
-136.1553497304947
 30
0.0
  9
$EXTMAX
 10
282.0450173375994
 20
117.2814493636654
 30
0.0
  9
$LIMMIN
 10
-148.5
 20
-105.0
  9
$LIMMAX
 10
148.5
 20
105.0
  9
$ORTHOMODE
 70
     0
  9
$REGENMODE
 70
     1
  9
$FILLMODE
 70
     1
  9
$QTEXTMODE
 70
     0
  9
$MIRRTEXT
 70
     1
  9
$DRAGMODE
 70
     2
  9
$LTSCALE
 40
1.0
  9
$OSMODE
 70
    37
  9
$ATTMODE
 70
     1
  9
$TEXTSIZE
 40
0.2
  9
$TRACEWID
 40
0.05
  9
$TEXTSTYLE
  7
STANDARD
  9
$CLAYER
  8
0
  9
$CELTYPE
  6
BYLAYER
  9
$CECOLOR
 62
   256
  9
$CELTSCALE
 40
1.0
  9
$DELOBJ
 70
     1
  9
$DISPSILH
 70
     0
  9
$DIMSCALE
 40
1.0
  9
$DIMASZ
 40
2.5
  9
$DIMEXO
 40
0.0625
  9
$DIMDLI
 40
0.38
  9
$DIMRND
 40
0.0
  9
$DIMDLE
 40
0.0
  9
$DIMEXE
 40
0.18
  9
$DIMTP
 40
0.0
  9
$DIMTM
 40
0.0
  9
$DIMTXT
 40
0.18
  9
$DIMCEN
 40
0.09
  9
$DIMTSZ
 40
0.0
  9
$DIMTOL
 70
     0
  9
$DIMLIM
 70
     0
  9
$DIMTIH
 70
     1
  9
$DIMTOH
 70
     1
  9
$DIMSE1
 70
     0
  9
$DIMSE2
 70
     0
  9
$DIMTAD
 70
     3
  9
$DIMZIN
 70
     0
  9
$DIMBLK
  1

  9
$DIMASO
 70
     1
  9
$DIMSHO
 70
     1
  9
$DIMPOST
  1

  9
$DIMAPOST
  1

  9
$DIMALT
 70
     0
  9
$DIMALTD
 70
     2
  9
$DIMALTF
 40
25.4
  9
$DIMLFAC
 40
1.0
  9
$DIMTOFL
 70
     0
  9
$DIMTVP
 40
0.0
  9
$DIMTIX
 70
     0
  9
$DIMSOXD
 70
     0
  9
$DIMSAH
 70
     0
  9
$DIMBLK1
  1

  9
$DIMBLK2
  1

  9
$DIMSTYLE
  2
STANDARD
  9
$DIMCLRD
 70
     0
  9
$DIMCLRE
 70
     0
  9
$DIMCLRT
 70
     0
  9
$DIMTFAC
 40
1.0
  9
$DIMGAP
 40
0.09
  9
$DIMJUST
 70
     0
  9
$DIMSD1
 70
     0
  9
$DIMSD2
 70
     0
  9
$DIMTOLJ
 70
     1
  9
$DIMTZIN
 70
     0
  9
$DIMALTZ
 70
     0
  9
$DIMALTTZ
 70
     0
  9
$DIMFIT
 70
     3
  9
$DIMUPT
 70
     0
  9
$DIMUNIT
 70
     2
  9
$DIMDEC
 70
     4
  9
$DIMTDEC
 70
     4
  9
$DIMALTU
 70
     2
  9
$DIMALTTD
 70
     2
  9
$DIMTXSTY
  7
STANDARD
  9
$DIMAUNIT
 70
     0
  9
$LUNITS
 70
     2
  9
$LUPREC
 70
     4
  9
$SKETCHINC
 40
0.1
  9
$FILLETRAD
 40
0.5
  9
$AUNITS
 70
     0
  9
$AUPREC
 70
     0
  9
$MENU
  1
.
  9
$ELEVATION
 40
0.0
  9
$PELEVATION
 40
0.0
  9
$THICKNESS
 40
0.0
  9
$LIMCHECK
 70
     0
  9
$CHAMFERA
 40
0.5
  9
$CHAMFERB
 40
0.5
  9
$CHAMFERC
 40
1.0
  9
$CHAMFERD
 40
0.0
  9
$SKPOLY
 70
     0
  9
$TDCREATE
 40
2456337.41179897
  9
$TDUPDATE
 40
2456337.411798982
  9
$TDINDWG
 40
0.0000000116
  9
$TDUSRTIMER
 40
0.0000000116
  9
$USRTIMER
 70
     1
  9
$ANGBASE
 50
0.0
  9
$ANGDIR
 70
     0
  9
$PDMODE
 70
     0
  9
$PDSIZE
 40
1.0
  9
$PLINEWID
 40
0.0
  9
$COORDS
 70
     1
  9
$SPLFRAME
 70
     0
  9
$SPLINETYPE
 70
     6
  9
$SPLINESEGS
 70
     8
  9
$ATTDIA
 70
     0
  9
$ATTREQ
 70
     1
  9
$HANDLING
 70
     1
  9
$HANDSEED
  5
194
  9
$SURFTAB1
 70
     6
  9
$SURFTAB2
 70
     6
  9
$SURFTYPE
 70
     6
  9
$SURFU
 70
     6
  9
$SURFV
 70
     6
  9
$UCSNAME
  2

  9
$UCSORG
 10
0.0
 20
0.0
 30
0.0
  9
$UCSXDIR
 10
1.0
 20
0.0
 30
0.0
  9
$UCSYDIR
 10
0.0
 20
1.0
 30
0.0
  9
$PUCSNAME
  2

  9
$PUCSORG
 10
0.0
 20
0.0
 30
0.0
  9
$PUCSXDIR
 10
1.0
 20
0.0
 30
0.0
  9
$PUCSYDIR
 10
0.0
 20
1.0
 30
0.0
  9
$USERI1
 70
     0
  9
$USERI2
 70
     0
  9
$USERI3
 70
     0
  9
$USERI4
 70
     0
  9
$USERI5
 70
     0
  9
$USERR1
 40
0.0
  9
$USERR2
 40
0.0
  9
$USERR3
 40
0.0
  9
$USERR4
 40
0.0
  9
$USERR5
 40
0.0
  9
$WORLDVIEW
 70
     1
  9
$SHADEDGE
 70
     3
  9
$SHADEDIF
 70
    70
  9
$TILEMODE
 70
     1
  9
$MAXACTVP
 70
    64
  9
$PINSBASE
 10
0.0
 20
0.0
 30
0.0
  9
$PLIMCHECK
 70
     0
  9
$PEXTMIN
 10
1.000000000000000E+20
 20
1.000000000000000E+20
 30
1.000000000000000E+20
  9
$PEXTMAX
 10
-1.000000000000000E+20
 20
-1.000000000000000E+20
 30
-1.000000000000000E+20
  9
$PLIMMIN
 10
0.0
 20
0.0
  9
$PLIMMAX
 10
12.0
 20
9.0
  9
$UNITMODE
 70
     0
  9
$VISRETAIN
 70
     0
  9
$PLINEGEN
 70
     1
  9
$PSLTSCALE
 70
     0
  9
$TREEDEPTH
 70
  3020
  9
$PICKSTYLE
 70
     1
  9
$CMLSTYLE
  2
STANDARD
  9
$CMLJUST
 70
     0
  9
$CMLSCALE
 40
1.0
  9
$PROXYGRAPHICS
 70
     0
  9
$MEASUREMENT
 70
     1
  0
ENDSEC
  0
SECTION
  2
CLASSES
  0
CLASS
  1
ACDBDICTIONARYWDFLT
  2
AcDbDictionaryWithDefault
  3
ObjectDBX Classes
 90
        0
280
     0
281
     0
  0
CLASS
  1
XRECORD
  2
AcDbXrecord
  3
AutoCAD 2000
 90
        0
280
     0
281
     0
  0
CLASS
  1
LWPOLYLINE
  2
AcDbPolyline
  3
AutoCAD 2000
 90
        0
280
     0
281
     1
  0
CLASS
  1
HATCH
  2
AcDbHatch
  3
AutoCAD 2000
 90
        0
280
     0
281
     1
  0
CLASS
  1
ACDBPLACEHOLDER
  2
AcDbPlaceHolder
  3
ObjectDBX Classes
 90
        0
280
     0
281
     0
  0
CLASS
  1
LAYOUT
  2
AcDbLayout
  3
ObjectDBX Classes
 90
        0
280
     0
281
     0
  0
ENDSEC
  0
SECTION
  2
TABLES
  0
TABLE
  2
VPORT
  5
8
330
0
100
AcDbSymbolTable
 70
     1
  0
VPORT
  5
29
330
8
100
AcDbSymbolTableRecord
100
AcDbViewportTableRecord
  2
*ACTIVE
 70
     0
 10
0.0
 20
0.0
 11
1.0
 21
1.0
 12
0.0
 22
0.0
 13
0.0
 23
0.0
 14
0.5
 24
0.5
 15
0.5
 25
0.5
 16
0.0
 26
0.0
 36
1.0
 17
7.001254334399828
 27
14.52630710380664
 37
0.0
 40
75.78622357441479
 41
2.467859592694052
 42
50.0
 43
0.0
 44
0.0
 50
0.0
 51
0.0
 71
     0
 72
  1000
 73
     1
 74
     1
 75
     0
 76
     0
 77
     0
 78
     0
  0
ENDTAB
  0
TABLE
  2
LTYPE
  5
5
330
0
100
AcDbSymbolTable
 70
    28
  0
LTYPE
  5
14
330
5
100
AcDbSymbolTableRecord
100
AcDbLinetypeTableRecord
  2
BYBLOCK
 70
     0
  3

 72
    65
 73
     0
 40
0.0
  0
LTYPE
  5
15
330
5
100
AcDbSymbolTableRecord
100
AcDbLinetypeTableRecord
  2
BYLAYER
 70
     0
  3

 72
    65
 73
     0
 40
0.0
  0
LTYPE
  5
16
330
5
100
AcDbSymbolTableRecord
100
AcDbLinetypeTableRecord
  2
CONTINUOUS
 70
     0
  3
Solid line
 72
    65
 73
     0
 40
0.0
  0
LTYPE
  5
2B
330
5
100
AcDbSymbolTableRecord
100
AcDbLinetypeTableRecord
  2
HIDDENX2
 70
     0
  3
CADPAC LINETYPE
 72
    65
 73
     2
 40
4.320987654320959
 49
3.240740740740719
 74
     0
 49
-1.08024691358024
 74
     0
  0
LTYPE
  5
2C
330
5
100
AcDbSymbolTableRecord
100
AcDbLinetypeTableRecord
  2
HIDDEN
 70
     0
  3
CADPAC LINETYPE
 72
    65
 73
     2
 40
3.240740740740719
 49
2.160493827160479
 74
     0
 49
-1.08024691358024
 74
     0
  0
LTYPE
  5
2D
330
5
100
AcDbSymbolTableRecord
100
AcDbLinetypeTableRecord
  2
HIDDEN2
 70
     0
  3
CADPAC LINETYPE
 72
    65
 73
     2
 40
2.700617283950599
 49
1.62037037037036
 74
     0
 49
-1.08024691358024
 74
     0
  0
LTYPE
  5
2E
330
5
100
AcDbSymbolTableRecord
100
AcDbLinetypeTableRecord
  2
DASHED
 70
     0
  3
CADPAC LINETYPE
 72
    65
 73
     2
 40
3.024691358024683
 49
2.160493827160479
 74
     0
 49
-0.8641975308642032
 74
     0
  0
LTYPE
  5
2F
330
5
100
AcDbSymbolTableRecord
100
AcDbLinetypeTableRecord
  2
DASHED2
 70
     0
  3
CADPAC LINETYPE
 72
    65
 73
     2
 40
1.944444444444457
 49
1.296296296296305
 74
     0
 49
-0.6481481481481524
 74
     0
  0
LTYPE
  5
30
330
5
100
AcDbSymbolTableRecord
100
AcDbLinetypeTableRecord
  2
DASHEDX2
 70
     0
  3
CADPAC LINETYPE
 72
    65
 73
     2
 40
5.185185185185219
 49
4.320987654321016
 74
     0
 49
-0.8641975308642032
 74
     0
  0
LTYPE
  5
31
330
5
100
AcDbSymbolTableRecord
100
AcDbLinetypeTableRecord
  2
DOTX2
 70
     0
  3
CADPAC LINETYPE
 72
    65
 73
     2
 40
1.890432098765444
 49
0.0
 74
     0
 49
-1.890432098765444
 74
     0
  0
LTYPE
  5
32
330
5
100
AcDbSymbolTableRecord
100
AcDbLinetypeTableRecord
  2
DOT
 70
     0
  3
CADPAC LINETYPE
 72
    65
 73
     2
 40
1.512345679012356
 49
0.0
 74
     0
 49
-1.512345679012356
 74
     0
  0
LTYPE
  5
33
330
5
100
AcDbSymbolTableRecord
100
AcDbLinetypeTableRecord
  2
DOT2
 70
     0
  3
CADPAC LINETYPE
 72
    65
 73
     2
 40
1.134259259259267
 49
0.0
 74
     0
 49
-1.134259259259267
 74
     0
  0
LTYPE
  5
34
330
5
100
AcDbSymbolTableRecord
100
AcDbLinetypeTableRecord
  2
CENTERX2
 70
     0
  3
CADPAC LINETYPE
 72
    65
 73
     4
 40
6.481481481481438
 49
2.700617283950599
 74
     0
 49
-1.3503086419753
 74
     0
 49
1.08024691358024
 74
     0
 49
-1.3503086419753
 74
     0
  0
LTYPE
  5
35
330
5
100
AcDbSymbolTableRecord
100
AcDbLinetypeTableRecord
  2
CENTER
 70
     0
  3
CADPAC LINETYPE
 72
    65
 73
     4
 40
4.969135802469102
 49
2.160493827160479
 74
     0
 49
-1.08024691358024
 74
     0
 49
0.6481481481481438
 74
     0
 49
-1.08024691358024
 74
     0
  0
LTYPE
  5
36
330
5
100
AcDbSymbolTableRecord
100
AcDbLinetypeTableRecord
  2
CENTER2
 70
     0
  3
CADPAC LINETYPE
 72
    65
 73
     4
 40
3.456790123456767
 49
1.62037037037036
 74
     0
 49
-0.8101851851851798
 74
     0
 49
0.216049382716048
 74
     0
 49
-0.8101851851851798
 74
     0
  0
LTYPE
  5
37
330
5
100
AcDbSymbolTableRecord
100
AcDbLinetypeTableRecord
  2
DASHDOTX2
 70
     0
  3
CADPAC LINETYPE
 72
    65
 73
     4
 40
10.37037037037032
 49
5.18518518518519
 74
     0
 49
-1.728395061728378
 74
     0
 49
1.728395061728378
 74
     0
 49
-1.728395061728378
 74
     0
  0
LTYPE
  5
38
330
5
100
AcDbSymbolTableRecord
100
AcDbLinetypeTableRecord
  2
DASHDOT
 70
     0
  3
CADPAC LINETYPE
 72
    65
 73
     4
 40
5.185185185185219
 49
2.592592592592609
 74
     0
 49
-0.8641975308642032
 74
     0
 49
0.8641975308642032
 74
     0
 49
-0.8641975308642032
 74
     0
  0
LTYPE
  5
39
330
5
100
AcDbSymbolTableRecord
100
AcDbLinetypeTableRecord
  2
DASHDOT2
 70
     0
  3
CADPAC LINETYPE
 72
    65
 73
     4
 40
3.327160493827182
 49
1.944444444444457
 74
     0
 49
-0.6481481481481524
 74
     0
 49
0.0864197530864203
 74
     0
 49
-0.6481481481481524
 74
     0
  0
LTYPE
  5
3A
330
5
100
AcDbSymbolTableRecord
100
AcDbLinetypeTableRecord
  2
DIVIDEX2
 70
     0
  3
CADPAC LINETYPE
 72
    65
 73
     6
 40
13.82716049382708
 49
5.18518518518519
 74
     0
 49
-1.728395061728378
 74
     0
 49
1.728395061728378
 74
     0
 49
-1.728395061728378
 74
     0
 49
1.728395061728378
 74
     0
 49
-1.728395061728378
 74
     0
  0
LTYPE
  5
3B
330
5
100
AcDbSymbolTableRecord
100
AcDbLinetypeTableRecord
  2
DIVIDE
 70
     0
  3
CADPAC LINETYPE
 72
    65
 73
     6
 40
6.913580246913625
 49
2.592592592592609
 74
     0
 49
-0.8641975308642032
 74
     0
 49
0.8641975308642032
 74
     0
 49
-0.8641975308642032
 74
     0
 49
0.8641975308642032
 74
     0
 49
-0.8641975308642032
 74
     0
  0
LTYPE
  5
3C
330
5
100
AcDbSymbolTableRecord
100
AcDbLinetypeTableRecord
  2
DIVIDE2
 70
     0
  3
CADPAC LINETYPE
 72
    65
 73
     6
 40
5.185185185185219
 49
1.944444444444457
 74
     0
 49
-0.6481481481481524
 74
     0
 49
0.6481481481481524
 74
     0
 49
-0.6481481481481524
 74
     0
 49
0.6481481481481524
 74
     0
 49
-0.6481481481481524
 74
     0
  0
LTYPE
  5
3D
330
5
100
AcDbSymbolTableRecord
100
AcDbLinetypeTableRecord
  2
BORDERX2
 70
     0
  3
CADPAC LINETYPE
 72
    65
 73
     6
 40
9.452160493827098
 49
2.700617283950599
 74
     0
 49
-1.3503086419753
 74
     0
 49
2.700617283950599
 74
     0
 49
-1.3503086419753
 74
     0
 49
0.0
 74
     0
 49
-1.3503086419753
 74
     0
  0
LTYPE
  5
3E
330
5
100
AcDbSymbolTableRecord
100
AcDbLinetypeTableRecord
  2
BORDER
 70
     0
  3
CADPAC LINETYPE
 72
    65
 73
     6
 40
7.561728395061678
 49
2.160493827160479
 74
     0
 49
-1.08024691358024
 74
     0
 49
2.160493827160479
 74
     0
 49
-1.08024691358024
 74
     0
 49
0.0
 74
     0
 49
-1.08024691358024
 74
     0
  0
LTYPE
  5
3F
330
5
100
AcDbSymbolTableRecord
100
AcDbLinetypeTableRecord
  2
BORDER2
 70
     0
  3
CADPAC LINETYPE
 72
    65
 73
     6
 40
5.617283950617221
 49
1.728395061728378
 74
     0
 49
-1.080246913580226
 74
     0
 49
0.6481481481481524
 74
     0
 49
-1.080246913580226
 74
     0
 49
0.0
 74
     0
 49
-1.08024691358024
 74
     0
  0
LTYPE
  5
40
330
5
100
AcDbSymbolTableRecord
100
AcDbLinetypeTableRecord
  2
PHANTOMX2
 70
     0
  3
CADPAC LINETYPE
 72
    65
 73
     6
 40
8.101851851851798
 49
2.700617283950599
 74
     0
 49
-1.08024691358024
 74
     0
 49
1.08024691358024
 74
     0
 49
-1.08024691358024
 74
     0
 49
1.08024691358024
 74
     0
 49
-1.08024691358024
 74
     0
  0
LTYPE
  5
41
330
5
100
AcDbSymbolTableRecord
100
AcDbLinetypeTableRecord
  2
PHANTOM
 70
     0
  3
CADPAC LINETYPE
 72
    65
 73
     6
 40
6.697530864197486
 49
2.160493827160479
 74
     0
 49
-1.08024691358024
 74
     0
 49
0.6481481481481438
 74
     0
 49
-1.08024691358024
 74
     0
 49
0.6481481481481438
 74
     0
 49
-1.08024691358024
 74
     0
  0
LTYPE
  5
42
330
5
100
AcDbSymbolTableRecord
100
AcDbLinetypeTableRecord
  2
PHANTOM2
 70
     0
  3
CADPAC LINETYPE
 72
    65
 73
     6
 40
5.725308641975271
 49
1.62037037037036
 74
     0
 49
-1.08024691358024
 74
     0
 49
0.4320987654320959
 74
     0
 49
-1.08024691358024
 74
     0
 49
0.4320987654320959
 74
     0
 49
-1.08024691358024
 74
     0
  0
LTYPE
  5
43
330
5
100
AcDbSymbolTableRecord
100
AcDbLinetypeTableRecord
  2
ACAD_ISO06W100
 70
     0
  3
CADPAC LINETYPE
 72
    65
 73
     8
 40
11.45061728395055
 49
5.18518518518519
 74
     0
 49
-1.080246913580226
 74
     0
 49
0.6481481481481524
 74
     0
 49
-1.080246913580226
 74
     0
 49
0.6481481481481524
 74
     0
 49
-1.080246913580226
 74
     0
 49
0.6481481481481524
 74
     0
 49
-1.080246913580226
 74
     0
  0
LTYPE
  5
44
330
5
100
AcDbSymbolTableRecord
100
AcDbLinetypeTableRecord
  2
ACAD_ISO13W100
 70
     0
  3
CADPAC LINETYPE
 72
    65
 73
     8
 40
8.641975308641918
 49
2.160493827160479
 74
     0
 49
-1.08024691358024
 74
     0
 49
2.160493827160479
 74
     0
 49
-1.08024691358024
 74
     0
 49
0.0
 74
     0
 49
-1.08024691358024
 74
     0
 49
0.0
 74
     0
 49
-1.08024691358024
 74
     0
  0
LTYPE
  5
45
330
5
100
AcDbSymbolTableRecord
100
AcDbLinetypeTableRecord
  2
ACAD_ISO14W100
 70
     0
  3
CADPAC LINETYPE
 72
    65
 73
     8
 40
6.481481481481438
 49
2.160493827160479
 74
     0
 49
-1.08024691358024
 74
     0
 49
0.0
 74
     0
 49
-1.08024691358024
 74
     0
 49
0.0
 74
     0
 49
-1.08024691358024
 74
     0
 49
0.0
 74
     0
 49
-1.08024691358024
 74
     0
  0
ENDTAB
  0
TABLE
  2
LAYER
  5
2
330
0
100
AcDbSymbolTable
 70
     3
  0
LAYER
  5
10
330
2
100
AcDbSymbolTableRecord
100
AcDbLayerTableRecord
  2
0
 70
     0
 62
     7
  6
CONTINUOUS
  0
LAYER
  5
46
330
2
100
AcDbSymbolTableRecord
100
AcDbLayerTableRecord
  2
LAYER0002
 70
     0
 62
     7
  6
CONTINUOUS
  0
LAYER
  5
47
330
2
100
AcDbSymbolTableRecord
100
AcDbLayerTableRecord
  2
LAYER0004
 70
     0
 62
     7
  6
CONTINUOUS
  0
ENDTAB
  0
TABLE
  2
STYLE
  5
3
330
0
100
AcDbSymbolTable
 70
     2
  0
STYLE
  5
11
330
3
100
AcDbSymbolTableRecord
100
AcDbTextStyleTableRecord
  2
STANDARD
 70
     0
 40
0.0
 41
1.0
 50
0.0
 71
     0
 42
0.2
  3
txt
  4

  0
STYLE
  5
6A
330
3
100
AcDbSymbolTableRecord
100
AcDbTextStyleTableRecord
  2
FDASTYLE0
 70
     0
 40
4.0
 41
0.8000000000000007
 50
0.0
 71
     0
 42
0.2
  3
txt.shx
  4
bigfont
  0
ENDTAB
  0
TABLE
  2
VIEW
  5
6
330
0
100
AcDbSymbolTable
 70
     0
  0
ENDTAB
  0
TABLE
  2
UCS
  5
7
330
0
100
AcDbSymbolTable
 70
     0
  0
ENDTAB
  0
TABLE
  2
APPID
  5
9
330
0
100
AcDbSymbolTable
 70
     2
  0
APPID
  5
12
330
9
100
AcDbSymbolTableRecord
100
AcDbRegAppTableRecord
  2
ACAD
 70
     0
  0
APPID
  5
2A
330
9
100
AcDbSymbolTableRecord
100
AcDbRegAppTableRecord
  2
DAFUSIONOUT
 70
     0
  0
ENDTAB
  0
TABLE
  2
DIMSTYLE
  5
A
330
0
100
AcDbSymbolTable
 70
     1
  0
DIMSTYLE
105
27
330
A
100
AcDbSymbolTableRecord
100
AcDbDimStyleTableRecord
  2
STANDARD
 70
     0
  3

  4

  5

  6

  7

 40
1.0
 41
0.18
 42
0.0625
 43
0.38
 44
0.18
 45
0.0
 46
0.0
 47
0.0
 48
0.0
140
0.18
141
0.09
142
0.0
143
25.4
144
1.0
145
0.0
146
1.0
147
0.09
 71
     0
 72
     0
 73
     1
 74
     1
 75
     0
 76
     0
 77
     0
 78
     0
170
     0
171
     2
172
     0
173
     0
174
     0
175
     0
176
     0
177
     0
178
     0
270
     2
271
     4
272
     4
273
     2
274
     2
340
11
275
     0
280
     0
281
     0
282
     0
283
     1
284
     0
285
     0
286
     0
287
     3
288
     0
  0
ENDTAB
  0
TABLE
  2
BLOCK_RECORD
  5
1
330
0
100
AcDbSymbolTable
 70
    10
  0
BLOCK_RECORD
  5
1F
330
1
100
AcDbSymbolTableRecord
100
AcDbBlockTableRecord
  2
*MODEL_SPACE
  0
BLOCK_RECORD
  5
1B
330
1
100
AcDbSymbolTableRecord
100
AcDbBlockTableRecord
  2
*PAPER_SPACE
  0
BLOCK_RECORD
  5
49
330
1
100
AcDbSymbolTableRecord
100
AcDbBlockTableRecord
  2
DA_IMAGEDIMGROUP_1
  0
BLOCK_RECORD
  5
4C
330
1
100
AcDbSymbolTableRecord
100
AcDbBlockTableRecord
  2
DA_IMAGEDIMGROUP_2
  0
BLOCK_RECORD
  5
4F
330
1
100
AcDbSymbolTableRecord
100
AcDbBlockTableRecord
  2
DA_IMAGEDIMGROUP_3
  0
BLOCK_RECORD
  5
52
330
1
100
AcDbSymbolTableRecord
100
AcDbBlockTableRecord
  2
DA_IMAGEDIMGROUP_4
  0
BLOCK_RECORD
  5
55
330
1
100
AcDbSymbolTableRecord
100
AcDbBlockTableRecord
  2
DA_IMAGEDIMGROUP_5
  0
BLOCK_RECORD
  5
58
330
1
100
AcDbSymbolTableRecord
100
AcDbBlockTableRecord
  2
DA_IMAGEDIMGROUP_6
  0
BLOCK_RECORD
  5
5B
330
1
100
AcDbSymbolTableRecord
100
AcDbBlockTableRecord
  2
DA_IMAGEDIMGROUP_7
  0
BLOCK_RECORD
  5
61
330
1
100
AcDbSymbolTableRecord
100
AcDbBlockTableRecord
  2
_OPEN30
  0
BLOCK_RECORD
  5
75
330
1
100
AcDbSymbolTableRecord
100
AcDbBlockTableRecord
  2
_DOT
  0
ENDTAB
  0
ENDSEC
  0
SECTION
  2
BLOCKS
  0
BLOCK
  5
20
330
1F
100
AcDbEntity
  8
0
100
AcDbBlockBegin
  2
*MODEL_SPACE
 70
     0
 71
     0
 10
0.0
 20
0.0
 30
0.0
  3
*MODEL_SPACE
  1

  0
ENDBLK
  5
21
330
1F
100
AcDbEntity
  8
0
100
AcDbBlockEnd
  0
BLOCK
  5
1C
330
1B
100
AcDbEntity
 67
     1
  8
0
100
AcDbBlockBegin
  2
*PAPER_SPACE
 70
     0
 71
     0
 10
0.0
 20
0.0
 30
0.0
  3
*PAPER_SPACE
  1

  0
ENDBLK
  5
1D
330
1B
100
AcDbEntity
 67
     1
  8
0
100
AcDbBlockEnd
  0
BLOCK
  5
4A
330
49
100
AcDbEntity
  8
0
100
AcDbBlockBegin
  2
DA_IMAGEDIMGROUP_1
 70
     0
 71
     0
 10
0.0
 20
0.0
 30
0.0
  3
DA_IMAGEDIMGROUP_1
  1

  0
LINE
  5
5E
330
49
100
AcDbEntity
  8
0
  6
CONTINUOUS
 62
     9
100
AcDbLine
 10
76.48250866879974
 20
11.2519025653012
 30
0.0
 11
76.48250866879974
 21
31.1629225131599
 31
0.0
  0
LINE
  5
5F
330
49
100
AcDbEntity
  8
0
  6
CONTINUOUS
 62
     9
100
AcDbLine
 10
76.48250866879974
 20
30.1629225131599
 30
0.0
 11
79.48250866879968
 21
30.1629225131599
 31
0.0
  0
LINE
  5
60
330
49
100
AcDbEntity
  8
0
  6
CONTINUOUS
 62
     9
100
AcDbLine
 10
67.38472866879974
 20
30.1629225131599
 30
0.0
 11
76.48250866879974
 21
30.1629225131599
 31
0.0
  0
INSERT
  5
67
330
49
100
AcDbEntity
  8
0
 62
     9
100
AcDbBlockReference
  2
_OPEN30
 10
76.48250866879974
 20
30.1629225131599
 30
0.0
 41
3.000002787824364
 42
2.999989273978464
 50
360.0
  0
LINE
  5
68
330
49
100
AcDbEntity
  8
0
  6
CONTINUOUS
 62
     9
100
AcDbLine
 10
84.48250866879968
 20
30.1629225131599
 30
0.0
 11
79.48250866879968
 21
30.1629225131599
 31
0.0
  0
INSERT
  5
69
330
49
100
AcDbEntity
  8
0
 62
     9
100
AcDbBlockReference
  2
_OPEN30
 10
79.48250866879968
 20
30.1629225131599
 30
0.0
 41
3.000002787824364
 42
2.999989273978464
 50
180.0
  0
TEXT
  5
6B
330
49
100
AcDbEntity
  8
0
 62
     7
100
AcDbText
 10
68.38472866879974
 20
31.1629225131599
 30
0.0
 40
4.0
  1
3
 41
0.8000000000000007
  7
FDASTYLE0
 72
     5
 11
71.58472866879974
 21
31.1629225131599
 31
0.0
100
AcDbText
  0
ENDBLK
  5
4B
330
49
100
AcDbEntity
  8
0
100
AcDbBlockEnd
  0
BLOCK
  5
4D
330
4C
100
AcDbEntity
  8
0
100
AcDbBlockBegin
  2
DA_IMAGEDIMGROUP_2
 70
     0
 71
     0
 10
0.0
 20
0.0
 30
0.0
  3
DA_IMAGEDIMGROUP_2
  1

  0
LINE
  5
6C
330
4C
100
AcDbEntity
  8
0
  6
CONTINUOUS
 62
     9
100
AcDbLine
 10
65.08250866879968
 20
8.151902565301192
 30
0.0
 11
65.08250866879968
 21
38.07883033462534
 31
0.0
  0
LINE
  5
6D
330
4C
100
AcDbEntity
  8
0
  6
CONTINUOUS
 62
     9
100
AcDbLine
 10
64.08250866879968
 20
8.151902565301192
 30
0.0
 11
64.08250866879968
 21
45.70044303583216
 31
0.0
  0
LINE
  5
6E
330
4C
100
AcDbEntity
  8
0
  6
CONTINUOUS
 62
     9
100
AcDbLine
 10
64.08250866879968
 20
37.07883033462534
 30
0.0
 11
65.08250866879968
 21
37.07883033462534
 31
0.0
  0
LINE
  5
6F
330
4C
100
AcDbEntity
  8
0
  6
CONTINUOUS
 62
     9
100
AcDbLine
 10
65.78250866879969
 20
8.151902565301191
 30
0.0
 11
65.78250866879969
 21
38.07883033462534
 31
0.0
  0
LINE
  5
70
330
4C
100
AcDbEntity
  8
0
  6
CONTINUOUS
 62
     9
100
AcDbLine
 10
54.98472866879968
 20
37.07883033462534
 30
0.0
 11
64.08250866879968
 21
37.07883033462534
 31
0.0
  0
INSERT
  5
71
330
4C
100
AcDbEntity
  8
0
 62
     9
100
AcDbBlockReference
  2
_OPEN30
 10
64.08250866879968
 20
37.07883033462534
 30
0.0
 41
3.000002787824364
 42
2.999989273978464
 50
360.0
  0
LINE
  5
72
330
4C
100
AcDbEntity
  8
0
  6
CONTINUOUS
 62
     9
100
AcDbLine
 10
80.2802886687997
 20
37.07883033462534
 30
0.0
 11
65.78250866879969
 21
37.07883033462534
 31
0.0
  0
INSERT
  5
73
330
4C
100
AcDbEntity
  8
0
 62
     9
100
AcDbBlockReference
  2
_OPEN30
 10
65.78250866879969
 20
37.07883033462534
 30
0.0
 41
3.000002787824364
 42
2.999989273978464
 50
180.0
  0
LINE
  5
74
330
4C
100
AcDbEntity
  8
0
  6
CONTINUOUS
 62
     9
100
AcDbLine
 10
65.08250866879968
 20
37.07883033462534
 30
0.0
 11
65.78250866879969
 21
37.07883033462534
 31
0.0
  0
INSERT
  5
7A
330
4C
100
AcDbEntity
  8
0
 62
     9
100
AcDbBlockReference
  2
_DOT
 10
65.08250866879968
 20
37.07883033462534
 30
0.0
 41
2.5
 42
2.5
 50
180.0
  0
TEXT
  5
7B
330
4C
100
AcDbEntity
  8
0
 62
     7
100
AcDbText
 10
55.98472866879968
 20
38.07883033462534
 30
0.0
 40
4.0
  1
1
 41
0.8000000000000007
  7
FDASTYLE0
 72
     5
 11
59.18472866879968
 21
38.07883033462534
 31
0.0
100
AcDbText
  0
TEXT
  5
7C
330
4C
100
AcDbEntity
  8
0
 62
     7
100
AcDbText
 10
69.68028866879969
 20
38.07883033462534
 30
0.0
 40
4.0
  1
0.7
 41
0.8000000000000007
  7
FDASTYLE0
 72
     5
 11
79.2802886687997
 21
38.07883033462534
 31
0.0
100
AcDbText
  0
ENDBLK
  5
4E
330
4C
100
AcDbEntity
  8
0
100
AcDbBlockEnd
  0
BLOCK
  5
50
330
4F
100
AcDbEntity
  8
0
100
AcDbBlockBegin
  2
DA_IMAGEDIMGROUP_3
 70
     0
 71
     0
 10
0.0
 20
0.0
 30
0.0
  3
DA_IMAGEDIMGROUP_3
  1

  0
LINE
  5
7D
330
4F
100
AcDbEntity
  8
0
  6
CONTINUOUS
 62
     9
100
AcDbLine
 10
79.48250866879968
 20
23.25190256530116
 30
0.0
 11
79.48250866879968
 21
45.70044303583216
 31
0.0
  0
LINE
  5
7E
330
4F
100
AcDbEntity
  8
0
  6
CONTINUOUS
 62
     9
100
AcDbLine
 10
95.48250866879968
 20
23.25190256530116
 30
0.0
 11
95.48250866879968
 21
45.70044303583216
 31
0.0
  0
LINE
  5
7F
330
4F
100
AcDbEntity
  8
0
  6
CONTINUOUS
 62
     9
100
AcDbLine
 10
64.08250866879968
 20
44.70044303583216
 30
0.0
 11
79.48250866879968
 21
44.70044303583216
 31
0.0
  0
INSERT
  5
80
330
4F
100
AcDbEntity
  8
0
 62
     9
100
AcDbBlockReference
  2
_OPEN30
 10
64.08250866879968
 20
44.70044303583216
 30
0.0
 41
3.000002787824364
 42
2.999989273978464
 50
180.0
  0
INSERT
  5
81
330
4F
100
AcDbEntity
  8
0
 62
     9
100
AcDbBlockReference
  2
_OPEN30
 10
79.48250866879968
 20
44.70044303583216
 30
0.0
 41
3.000002787824364
 42
2.999989273978464
 50
360.0
  0
LINE
  5
82
330
4F
100
AcDbEntity
  8
0
  6
CONTINUOUS
 62
     9
100
AcDbLine
 10
79.48250866879968
 20
44.70044303583216
 30
0.0
 11
95.48250866879968
 21
44.70044303583216
 31
0.0
  0
INSERT
  5
83
330
4F
100
AcDbEntity
  8
0
 62
     9
100
AcDbBlockReference
  2
_OPEN30
 10
79.48250866879968
 20
44.70044303583216
 30
0.0
 41
3.000002787824364
 42
2.999989273978464
 50
180.0
  0
INSERT
  5
84
330
4F
100
AcDbEntity
  8
0
 62
     9
100
AcDbBlockReference
  2
_OPEN30
 10
95.48250866879968
 20
44.70044303583216
 30
0.0
 41
3.000002787824364
 42
2.999989273978464
 50
360.0
  0
TEXT
  5
85
330
4F
100
AcDbEntity
  8
0
 62
     7
100
AcDbText
 10
64.88250866879967
 20
45.70044303583216
 30
0.0
 40
4.0
  1
15.4
 41
0.8000000000000007
  7
FDASTYLE0
 72
     5
 11
77.68250866879968
 21
45.70044303583216
 31
0.0
100
AcDbText
  0
TEXT
  5
86
330
4F
100
AcDbEntity
  8
0
 62
     7
100
AcDbText
 10
83.78250866879968
 20
45.70044303583216
 30
0.0
 40
4.0
  1
16
 41
0.8000000000000007
  7
FDASTYLE0
 72
     5
 11
90.18250866879968
 21
45.70044303583216
 31
0.0
100
AcDbText
  0
ENDBLK
  5
51
330
4F
100
AcDbEntity
  8
0
100
AcDbBlockEnd
  0
BLOCK
  5
53
330
52
100
AcDbEntity
  8
0
100
AcDbBlockBegin
  2
DA_IMAGEDIMGROUP_4
 70
     0
 71
     0
 10
0.0
 20
0.0
 30
0.0
  3
DA_IMAGEDIMGROUP_4
  1

  0
LINE
  5
87
330
52
100
AcDbEntity
  8
0
  6
CONTINUOUS
 62
     9
100
AcDbLine
 10
64.08250866879968
 20
1.751902565301243
 30
0.0
 11
64.08250866879968
 21
-18.8250093092534
 31
0.0
  0
LINE
  5
88
330
52
100
AcDbEntity
  8
0
  6
CONTINUOUS
 62
     9
100
AcDbLine
 10
74.58250866879956
 20
6.151902565301178
 30
0.0
 11
74.58250866879956
 21
-18.8250093092534
 31
0.0
  0
LINE
  5
89
330
52
100
AcDbEntity
  8
0
  6
CONTINUOUS
 62
     9
100
AcDbLine
 10
64.08250866879968
 20
-17.8250093092534
 30
0.0
 11
74.58250866879956
 21
-17.8250093092534
 31
0.0
  0
LINE
  5
8A
330
52
100
AcDbEntity
  8
0
  6
CONTINUOUS
 62
     9
100
AcDbLine
 10
45.38472866879968
 20
-17.8250093092534
 30
0.0
 11
64.08250866879968
 21
-17.8250093092534
 31
0.0
  0
INSERT
  5
8B
330
52
100
AcDbEntity
  8
0
 62
     9
100
AcDbBlockReference
  2
_OPEN30
 10
64.08250866879968
 20
-17.8250093092534
 30
0.0
 41
3.000002787824364
 42
2.999989273978464
 50
360.0
  0
LINE
  5
8C
330
52
100
AcDbEntity
  8
0
  6
CONTINUOUS
 62
     9
100
AcDbLine
 10
79.58250866879956
 20
-17.8250093092534
 30
0.0
 11
74.58250866879956
 21
-17.8250093092534
 31
0.0
  0
INSERT
  5
8D
330
52
100
AcDbEntity
  8
0
 62
     9
100
AcDbBlockReference
  2
_OPEN30
 10
74.58250866879956
 20
-17.8250093092534
 30
0.0
 41
3.000002787824364
 42
2.999989273978464
 50
180.0
  0
TEXT
  5
8E
330
52
100
AcDbEntity
  8
0
 62
     7
100
AcDbText
 10
46.38472866879968
 20
-16.8250093092534
 30
0.0
 40
4.0
  1
10.5
 41
0.7999999999999998
  7
FDASTYLE0
 72
     5
 11
59.18472866879968
 21
-16.8250093092534
 31
0.0
100
AcDbText
  0
ENDBLK
  5
54
330
52
100
AcDbEntity
  8
0
100
AcDbBlockEnd
  0
BLOCK
  5
56
330
55
100
AcDbEntity
  8
0
100
AcDbBlockBegin
  2
DA_IMAGEDIMGROUP_5
 70
     0
 71
     0
 10
0.0
 20
0.0
 30
0.0
  3
DA_IMAGEDIMGROUP_5
  1

  0
LINE
  5
8F
330
55
100
AcDbEntity
  8
0
  6
CONTINUOUS
 62
     9
100
AcDbLine
 10
-51.17999999999998
 20
13.25190256530114
 30
0.0
 11
-51.17999999999998
 21
40.18393180548738
 31
0.0
  0
LINE
  5
90
330
55
100
AcDbEntity
  8
0
  6
CONTINUOUS
 62
     9
100
AcDbLine
 10
-65.47999999999999
 20
19.5519025653012
 30
0.0
 11
-65.47999999999999
 21
32.00976836884954
 31
0.0
  0
LINE
  5
91
330
55
100
AcDbEntity
  8
0
  6
CONTINUOUS
 62
     9
100
AcDbLine
 10
-23.88
 20
23.75190256530116
 30
0.0
 11
-23.88
 21
32.00976836884954
 31
0.0
  0
LINE
  5
92
330
55
100
AcDbEntity
  8
0
  6
CONTINUOUS
 62
     9
100
AcDbLine
 10
-65.47999999999999
 20
31.00976836884954
 30
0.0
 11
-51.17999999999998
 21
31.00976836884954
 31
0.0
  0
INSERT
  5
93
330
55
100
AcDbEntity
  8
0
 62
     9
100
AcDbBlockReference
  2
_OPEN30
 10
-65.47999999999999
 20
31.00976836884954
 30
0.0
 41
3.000002787824364
 42
2.999989273978464
 50
180.0
  0
INSERT
  5
94
330
55
100
AcDbEntity
  8
0
 62
     9
100
AcDbBlockReference
  2
_OPEN30
 10
-51.17999999999998
 20
31.00976836884954
 30
0.0
 41
3.000002787824364
 42
2.999989273978464
 50
360.0
  0
LINE
  5
95
330
55
100
AcDbEntity
  8
0
  6
CONTINUOUS
 62
     9
100
AcDbLine
 10
-51.17999999999998
 20
31.00976836884954
 30
0.0
 11
-23.88
 21
31.00976836884954
 31
0.0
  0
INSERT
  5
96
330
55
100
AcDbEntity
  8
0
 62
     9
100
AcDbBlockReference
  2
_OPEN30
 10
-51.17999999999998
 20
31.00976836884954
 30
0.0
 41
3.000002787824364
 42
2.999989273978464
 50
180.0
  0
INSERT
  5
97
330
55
100
AcDbEntity
  8
0
 62
     9
100
AcDbBlockReference
  2
_OPEN30
 10
-23.88
 20
31.00976836884954
 30
0.0
 41
3.000002787824364
 42
2.999989273978464
 50
360.0
  0
TEXT
  5
98
330
55
100
AcDbEntity
  8
0
 62
     7
100
AcDbText
 10
-65.22999999999999
 20
32.00976836884954
 30
0.0
 40
4.0
  1
14.3
 41
0.8000000000000003
  7
FDASTYLE0
 72
     5
 11
-52.42999999999999
 21
32.00976836884954
 31
0.0
100
AcDbText
  0
TEXT
  5
99
330
55
100
AcDbEntity
  8
0
 62
     7
100
AcDbText
 10
-44.42999999999999
 20
32.00976836884954
 30
0.0
 40
4.0
  1
27.3
 41
0.7999999999999998
  7
FDASTYLE0
 72
     5
 11
-31.62999999999999
 21
32.00976836884954
 31
0.0
100
AcDbText
  0
ENDBLK
  5
57
330
55
100
AcDbEntity
  8
0
100
AcDbBlockEnd
  0
BLOCK
  5
59
330
58
100
AcDbEntity
  8
0
100
AcDbBlockBegin
  2
DA_IMAGEDIMGROUP_6
 70
     0
 71
     0
 10
0.0
 20
0.0
 30
0.0
  3
DA_IMAGEDIMGROUP_6
  1

  0
LINE
  5
9A
330
58
100
AcDbEntity
  8
0
  6
CONTINUOUS
 62
     9
100
AcDbLine
 10
-69.18000000000001
 20
23.25190256530116
 30
0.0
 11
-69.18000000000001
 21
47.676416699108
 31
0.0
  0
LINE
  5
9B
330
58
100
AcDbEntity
  8
0
  6
CONTINUOUS
 62
     9
100
AcDbLine
 10
-69.18000000000001
 20
39.05480399790118
 30
0.0
 11
-51.17999999999998
 21
39.05480399790118
 31
0.0
  0
INSERT
  5
9C
330
58
100
AcDbEntity
  8
0
 62
     9
100
AcDbBlockReference
  2
_OPEN30
 10
-69.18000000000001
 20
39.05480399790118
 30
0.0
 41
3.000002787824364
 42
2.999989273978464
 50
180.0
  0
INSERT
  5
9D
330
58
100
AcDbEntity
  8
0
 62
     9
100
AcDbBlockReference
  2
_OPEN30
 10
-51.17999999999998
 20
39.05480399790118
 30
0.0
 41
3.000002787824364
 42
2.999989273978464
 50
360.0
  0
TEXT
  5
9E
330
58
100
AcDbEntity
  8
0
 62
     7
100
AcDbText
 10
-63.88
 20
40.05480399790118
 30
0.0
 40
4.0
  1
18
 41
0.8000000000000007
  7
FDASTYLE0
 72
     5
 11
-57.47999999999999
 21
40.05480399790118
 31
0.0
100
AcDbText
  0
ENDBLK
  5
5A
330
58
100
AcDbEntity
  8
0
100
AcDbBlockEnd
  0
BLOCK
  5
5C
330
5B
100
AcDbEntity
  8
0
100
AcDbBlockBegin
  2
DA_IMAGEDIMGROUP_7
 70
     0
 71
     0
 10
0.0
 20
0.0
 30
0.0
  3
DA_IMAGEDIMGROUP_7
  1

  0
LINE
  5
9F
330
5B
100
AcDbEntity
  8
0
  6
CONTINUOUS
 62
     9
100
AcDbLine
 10
-3.179999999999993
 20
23.25190256530116
 30
0.0
 11
-3.179999999999993
 21
47.676416699108
 31
0.0
  0
LINE
  5
A0
330
5B
100
AcDbEntity
  8
0
  6
CONTINUOUS
 62
     9
100
AcDbLine
 10
-69.18000000000001
 20
46.676416699108
 30
0.0
 11
-3.179999999999993
 21
46.676416699108
 31
0.0
  0
INSERT
  5
A1
330
5B
100
AcDbEntity
  8
0
 62
     9
100
AcDbBlockReference
  2
_OPEN30
 10
-69.18000000000001
 20
46.676416699108
 30
0.0
 41
3.000002787824364
 42
2.999989273978464
 50
180.0
  0
INSERT
  5
A2
330
5B
100
AcDbEntity
  8
0
 62
     9
100
AcDbBlockReference
  2
_OPEN30
 10
-3.179999999999993
 20
46.676416699108
 30
0.0
 41
3.000002787824364
 42
2.999989273978464
 50
360.0
  0
TEXT
  5
A3
330
5B
100
AcDbEntity
  8
0
 62
     7
100
AcDbText
 10
-39.88
 20
47.676416699108
 30
0.0
 40
4.0
  1
66
 41
0.8000000000000007
  7
FDASTYLE0
 72
     5
 11
-33.48
 21
47.676416699108
 31
0.0
100
AcDbText
  0
ENDBLK
  5
5D
330
5B
100
AcDbEntity
  8
0
100
AcDbBlockEnd
  0
BLOCK
  5
62
330
61
100
AcDbEntity
  8
0
100
AcDbBlockBegin
  2
_OPEN30
 70
     0
 71
     0
 10
0.0
 20
0.0
 30
0.0
  3
_OPEN30
  1

  0
LINE
  5
64
330
61
100
AcDbEntity
  8
0
  6
BYBLOCK
 62
     0
100
AcDbLine
 10
-1.0
 20
0.267949
 30
0.0
 11
0.0
 21
0.0
 31
0.0
  0
LINE
  5
65
330
61
100
AcDbEntity
  8
0
  6
BYBLOCK
 62
     0
100
AcDbLine
 10
0.0
 20
0.0
 30
0.0
 11
-1.0
 21
-0.267949
 31
0.0
  0
LINE
  5
66
330
61
100
AcDbEntity
  8
0
  6
BYBLOCK
 62
     0
100
AcDbLine
 10
0.0
 20
0.0
 30
0.0
 11
-1.0
 21
0.0
 31
0.0
  0
ENDBLK
  5
63
330
61
100
AcDbEntity
  8
0
100
AcDbBlockEnd
  0
BLOCK
  5
76
330
75
100
AcDbEntity
  8
0
100
AcDbBlockBegin
  2
_DOT
 70
     0
 71
     0
 10
0.0
 20
0.0
 30
0.0
  3
_DOT
  1

  0
LWPOLYLINE
  5
78
330
75
100
AcDbEntity
  8
0
  6
BYBLOCK
 62
     0
100
AcDbPolyline
 90
        2
 70
     1
 43
0.5
 10
-0.25
 20
0.0
 42
1.0
 10
0.25
 20
0.0
 42
1.0
  0
LINE
  5
79
330
75
100
AcDbEntity
  8
0
  6
BYBLOCK
 62
     0
100
AcDbLine
 10
-0.5
 20
0.0
 30
0.0
 11
-1.0
 21
0.0
 31
0.0
  0
ENDBLK
  5
77
330
75
100
AcDbEntity
  8
0
100
AcDbBlockEnd
  0
ENDSEC
  0
SECTION
  2
ENTITIES
  0
LINE
  5
A4
330
1F
100
AcDbEntity
  8
0
  6
CONTINUOUS
 62
     3
100
AcDbLine
 10
79.48250866879968
 20
22.25190256530116
 30
0.0
 11
79.48250866879968
 21
19.35263781966888
 31
0.0
  0
LINE
  5
A5
330
1F
100
AcDbEntity
  8
0
  6
CONTINUOUS
 62
     3
100
AcDbLine
 10
79.48250866879968
 20
5.751167310933404
 30
0.0
 11
79.48250866879968
 21
-11.74809743469884
 31
0.0
  0
LINE
  5
A6
330
1F
100
AcDbEntity
  8
0
  6
CONTINUOUS
 62
     3
100
AcDbLine
 10
95.48250866879968
 20
22.25190256530116
 30
0.0
 11
95.48250866879968
 21
19.35263781966885
 31
0.0
  0
LINE
  5
A7
330
1F
100
AcDbEntity
  8
0
  6
CONTINUOUS
 62
     3
100
AcDbLine
 10
95.48250866879968
 20
5.751167310933433
 30
0.0
 11
95.48250866879968
 21
-11.74809743469884
 31
0.0
  0
LINE
  5
A8
330
1F
100
AcDbEntity
  8
0
  6
CONTINUOUS
 62
     3
100
AcDbLine
 10
80.48250866879968
 20
23.25190256530116
 30
0.0
 11
94.48250866879968
 21
23.25190256530116
 31
0.0
  0
ARC
  5
A9
330
1F
100
AcDbEntity
  8
0
  6
CONTINUOUS
 62
     3
100
AcDbCircle
 10
94.48250866879968
 20
22.25190256530116
 30
0.0
 40
1.0
100
AcDbArc
 50
0.0
 51
90.0
  0
ARC
  5
AA
330
1F
100
AcDbEntity
  8
0
  6
CONTINUOUS
 62
     3
100
AcDbCircle
 10
80.48250866879968
 20
22.25190256530116
 30
0.0
 40
1.0
100
AcDbArc
 50
89.99999999999999
 51
180.0
  0
LINE
  5
AB
330
1F
100
AcDbEntity
  8
0
  6
CONTINUOUS
 62
     3
100
AcDbLine
 10
80.48250866879968
 20
-12.74809743469884
 30
0.0
 11
94.48250866879968
 21
-12.74809743469884
 31
0.0
  0
ARC
  5
AC
330
1F
100
AcDbEntity
  8
0
  6
CONTINUOUS
 62
     3
100
AcDbCircle
 10
94.48250866879968
 20
-11.74809743469884
 30
0.0
 40
1.0
100
AcDbArc
 50
270.0
 51
360.0
  0
ARC
  5
AD
330
1F
100
AcDbEntity
  8
0
  6
CONTINUOUS
 62
     3
100
AcDbCircle
 10
80.48250866879968
 20
-11.74809743469884
 30
0.0
 40
1.0
100
AcDbArc
 50
180.0
 51
269.9999999999999
  0
LINE
  5
AE
330
1F
100
AcDbEntity
  8
0
  6
CONTINUOUS
 62
     3
100
AcDbLine
 10
76.48250866879971
 20
8.251902565301201
 30
0.0
 11
74.58250866879973
 21
8.251902565301243
 31
0.0
  0
LINE
  5
AF
330
1F
100
AcDbEntity
  8
0
  6
CONTINUOUS
 62
     3
100
AcDbLine
 10
76.48250866879968
 20
2.251902565301201
 30
0.0
 11
65.78250866879972
 21
2.251902565301187
 31
0.0
  0
LINE
  5
B0
330
1F
100
AcDbEntity
  8
0
  6
CONTINUOUS
 62
     3
100
AcDbLine
 10
79.48250866879968
 20
0.2519025653012008
 30
0.0
 11
76.48250866879968
 21
0.2519025653012008
 31
0.0
  0
LINE
  5
B1
330
1F
100
AcDbEntity
  8
0
  6
CONTINUOUS
 62
     3
100
AcDbLine
 10
78.28250866879967
 20
10.25190256530113
 30
0.0
 11
76.48250866879968
 21
10.2519025653012
 31
0.0
  0
LINE
  5
B2
330
1F
100
AcDbEntity
  8
0
  6
CONTINUOUS
 62
     3
100
AcDbLine
 10
76.48250866879968
 20
0.2519025653012008
 30
0.0
 11
76.48250866879974
 21
10.2519025653012
 31
0.0
  0
LINE
  5
B3
330
1F
100
AcDbEntity
  8
0
  6
CONTINUOUS
 62
     3
100
AcDbLine
 10
74.58250866879956
 20
7.151902565301178
 30
0.0
 11
64.08250866879968
 21
7.151902565301192
 31
0.0
  0
LINE
  5
B4
330
1F
100
AcDbEntity
  8
0
  6
CONTINUOUS
 62
     3
100
AcDbLine
 10
-68.18000000000001
 20
23.25190256530114
 30
0.0
 11
-4.179999999999993
 21
23.25190256530117
 31
0.0
  0
LINE
  5
B5
330
1F
100
AcDbEntity
  8
0
  6
CONTINUOUS
 62
     3
100
AcDbLine
 10
-4.180000000000007
 20
-12.74809743469883
 30
0.0
 11
-68.17999999999998
 21
-12.74809743469886
 31
0.0
  0
LINE
  5
B6
330
1F
100
AcDbEntity
  8
0
  6
CONTINUOUS
 62
     3
100
AcDbLine
 10
-69.17999999999998
 20
-11.74809743469886
 30
0.0
 11
-69.18000000000001
 21
22.25190256530116
 31
0.0
  0
CIRCLE
  5
B7
330
1F
100
AcDbEntity
  8
0
  6
CONTINUOUS
 62
     3
100
AcDbCircle
 10
-51.17999999999998
 20
5.251902565301158
 30
0.0
 40
3.0
  0
CIRCLE
  5
B8
330
1F
100
AcDbEntity
  8
0
  6
CONTINUOUS
 62
     3
100
AcDbCircle
 10
-51.17999999999998
 20
5.251902565301158
 30
0.0
 40
4.999999999999982
  0
LINE
  5
B9
330
1F
100
AcDbEntity
  8
0
  6
CONTINUOUS
 62
     3
100
AcDbLine
 10
-53.50163735324878
 20
7.151902565301135
 30
0.0
 11
-48.85836264675118
 21
7.151902565301135
 31
0.0
  0
LINE
  5
BA
330
1F
100
AcDbEntity
  8
0
  6
CONTINUOUS
 62
     3
100
AcDbLine
 10
-3.179999999999993
 20
22.25190256530116
 30
0.0
 11
-3.180000000000007
 21
-11.74809743469884
 31
0.0
  0
ARC
  5
BB
330
1F
100
AcDbEntity
  8
0
  6
CONTINUOUS
 62
     3
100
AcDbCircle
 10
-4.179999999999993
 20
22.25190256530116
 30
0.0
 40
1.0
100
AcDbArc
 50
0.0
 51
89.99999999999999
  0
ARC
  5
BC
330
1F
100
AcDbEntity
  8
0
  6
CONTINUOUS
 62
     3
100
AcDbCircle
 10
-4.180000000000007
 20
-11.74809743469884
 30
0.0
 40
1.0
100
AcDbArc
 50
269.9999999999999
 51
360.0
  0
ARC
  5
BD
330
1F
100
AcDbEntity
  8
0
  6
CONTINUOUS
 62
     3
100
AcDbCircle
 10
-68.17999999999998
 20
-11.74809743469886
 30
0.0
 40
1.0
100
AcDbArc
 50
180.0
 51
269.9999999999999
  0
ARC
  5
BE
330
1F
100
AcDbEntity
  8
0
  6
CONTINUOUS
 62
     3
100
AcDbCircle
 10
-68.18000000000001
 20
22.25190256530116
 30
0.0
 40
1.0
100
AcDbArc
 50
89.99999999999999
 51
180.0
  0
CIRCLE
  5
BF
330
1F
100
AcDbEntity
  8
0
  6
CONTINUOUS
 62
     3
100
AcDbCircle
 10
-65.47999999999999
 20
-9.048097434698839
 30
0.0
 40
1.7
  0
CIRCLE
  5
C0
330
1F
100
AcDbEntity
  8
0
  6
CONTINUOUS
 62
     3
100
AcDbCircle
 10
-23.88
 20
19.55190256530116
 30
0.0
 40
1.7
  0
LINE
  5
C1
330
1F
100
AcDbEntity
  8
0
  6
CONTINUOUS
 62
     3
100
AcDbLine
 10
65.08250866879968
 20
2.251902565301187
 30
0.0
 11
64.58250866879968
 21
2.251902565301187
 31
0.0
  0
LINE
  5
C2
330
1F
100
AcDbEntity
  8
0
  6
CONTINUOUS
 62
     3
100
AcDbLine
 10
64.58250866879965
 20
2.251902565301215
 30
0.0
 11
64.08250866879968
 21
2.751902565301243
 31
0.0
  0
LINE
  5
C3
330
1F
100
AcDbEntity
  8
0
  6
CONTINUOUS
 62
     3
100
AcDbLine
 10
64.08250866879968
 20
7.151902565301192
 30
0.0
 11
64.08250866879968
 21
2.751902565301243
 31
0.0
  0
LINE
  5
C4
330
1F
100
AcDbEntity
  8
0
  6
CONTINUOUS
 62
     3
100
AcDbLine
 10
74.58250866879973
 20
8.251902565301243
 30
0.0
 11
74.58250866879956
 21
7.151902565301178
 31
0.0
  0
LINE
  5
C5
330
1F
100
AcDbEntity
  8
0
  6
CONTINUOUS
 62
     3
100
AcDbLine
 10
65.08250866879968
 20
2.251902565301187
 30
0.0
 11
65.08250866879968
 21
7.151902565301192
 31
0.0
  0
LINE
  5
C6
330
1F
100
AcDbEntity
  8
0
  6
CONTINUOUS
 62
     3
100
AcDbLine
 10
65.78250866879972
 20
2.251902565301187
 30
0.0
 11
65.78250866879969
 21
7.151902565301192
 31
0.0
  0
LINE
  5
C7
330
1F
100
AcDbEntity
  8
0
  6
CONTINUOUS
 62
     3
100
AcDbLine
 10
65.08250866879968
 20
3.251902565301187
 30
0.0
 11
65.78250866879967
 21
3.251902565301187
 31
0.0
  0
LINE
  5
C8
330
1F
100
AcDbEntity
  8
0
  6
CONTINUOUS
 62
     3
100
AcDbLine
 10
-8.480000000000132
 20
-10.2480974346988
 30
0.0
 11
-8.47999999999999
 21
-12.74809743469879
 31
0.0
  0
LINE
  5
C9
330
1F
100
AcDbEntity
  8
0
  6
CONTINUOUS
 62
     3
100
AcDbLine
 10
-13.88000000000002
 20
-11.74809743469877
 30
0.0
 11
-13.88000000000002
 21
-12.74809743469877
 31
0.0
  0
LINE
  5
CA
330
1F
100
AcDbEntity
  8
0
  6
CONTINUOUS
 62
     3
100
AcDbLine
 10
-8.480000000000047
 20
-10.24809743469881
 30
0.0
 11
-13.88000000000002
 21
-10.2480974346988
 31
0.0
  0
LINE
  5
CB
330
1F
100
AcDbEntity
  8
0
  6
CONTINUOUS
 62
     3
100
AcDbLine
 10
-13.88000000000002
 20
-11.74809743469877
 30
0.0
 11
-13.88000000000002
 21
-10.2480974346988
 31
0.0
  0
LINE
  5
CC
330
1F
100
AcDbEntity
  8
0
  6
CONTINUOUS
 62
     3
100
AcDbLine
 10
-65.47999999999999
 20
-4.455712433416828
 30
0.0
 11
-65.47999999999999
 21
18.5519025653012
 31
0.0
  0
ARC
  5
CD
330
1F
100
AcDbEntity
  8
0
  6
CONTINUOUS
 62
     3
100
AcDbCircle
 10
-64.47999999999999
 20
-4.455712433416828
 30
0.0
 40
1.0
100
AcDbArc
 50
180.0
 51
257.7155061436523
  0
LINE
  5
CE
330
1F
100
AcDbEntity
  8
0
  6
CONTINUOUS
 62
     3
100
AcDbLine
 10
-64.47999999999999
 20
19.5519025653012
 30
0.0
 11
-28.47238500128203
 21
19.55190256530117
 31
0.0
  0
ARC
  5
CF
330
1F
100
AcDbEntity
  8
0
  6
CONTINUOUS
 62
     3
100
AcDbCircle
 10
-28.47238500128203
 20
18.55190256530117
 30
0.0
 40
1.0
100
AcDbArc
 50
12.28449385634811
 51
89.99999999999992
  0
LINE
  5
D0
330
1F
100
AcDbEntity
  8
0
  6
CONTINUOUS
 62
     3
100
AcDbLine
 10
-19.28761499871804
 20
19.55190256530117
 30
0.0
 11
-7.880000000000067
 21
19.55190256530117
 31
0.0
  0
ARC
  5
D1
330
1F
100
AcDbEntity
  8
0
  6
CONTINUOUS
 62
     3
100
AcDbCircle
 10
-19.28761499871804
 20
18.55190256530117
 30
0.0
 40
1.0
100
AcDbArc
 50
89.99999999999992
 51
167.7155061436518
  0
ARC
  5
D2
330
1F
100
AcDbEntity
  8
0
  6
CONTINUOUS
 62
     3
100
AcDbCircle
 10
-64.47999999999999
 20
18.5519025653012
 30
0.0
 40
1.0
100
AcDbArc
 50
89.99999999999992
 51
180.0
  0
LINE
  5
D3
330
1F
100
AcDbEntity
  8
0
  6
CONTINUOUS
 62
     3
100
AcDbLine
 10
-6.880000000000067
 20
18.55190256530116
 30
0.0
 11
-6.880000000000081
 21
-8.048097434698825
 31
0.0
  0
ARC
  5
D4
330
1F
100
AcDbEntity
  8
0
  6
CONTINUOUS
 62
     3
100
AcDbCircle
 10
-7.880000000000067
 20
18.55190256530117
 30
0.0
 40
1.0
100
AcDbArc
 50
359.9999999999999
 51
449.9999999999999
  0
LINE
  5
D5
330
1F
100
AcDbEntity
  8
0
  6
CONTINUOUS
 62
     3
100
AcDbLine
 10
-7.880000000000081
 20
-9.048097434698825
 30
0.0
 11
-60.88761499871802
 21
-9.048097434698796
 31
0.0
  0
ARC
  5
D6
330
1F
100
AcDbEntity
  8
0
  6
CONTINUOUS
 62
     3
100
AcDbCircle
 10
-60.88761499871802
 20
-8.048097434698796
 30
0.0
 40
1.0
100
AcDbArc
 50
192.2844938563485
 51
269.9999999999999
  0
ARC
  5
D7
330
1F
100
AcDbEntity
  8
0
  6
CONTINUOUS
 62
     3
100
AcDbCircle
 10
-7.880000000000081
 20
-8.048097434698825
 30
0.0
 40
1.0
100
AcDbArc
 50
269.9999999999999
 51
359.9999999999999
  0
LINE
  5
D8
330
1F
100
AcDbEntity
  8
0
  6
CONTINUOUS
 62
     3
100
AcDbLine
 10
-54.47999999999999
 20
-10.24809743469881
 30
0.0
 11
-54.47999999999985
 21
-12.7480974346988
 31
0.0
  0
LINE
  5
D9
330
1F
100
AcDbEntity
  8
0
  6
CONTINUOUS
 62
     3
100
AcDbLine
 10
-59.87999999999988
 20
-11.74809743469879
 30
0.0
 11
-59.87999999999988
 21
-12.74809743469879
 31
0.0
  0
LINE
  5
DA
330
1F
100
AcDbEntity
  8
0
  6
CONTINUOUS
 62
     3
100
AcDbLine
 10
-54.47999999999991
 20
-10.24809743469883
 30
0.0
 11
-59.87999999999988
 21
-10.24809743469881
 31
0.0
  0
LINE
  5
DB
330
1F
100
AcDbEntity
  8
0
  6
CONTINUOUS
 62
     3
100
AcDbLine
 10
-59.87999999999988
 20
-11.74809743469879
 30
0.0
 11
-59.87999999999988
 21
-10.24809743469881
 31
0.0
  0
LINE
  5
DC
330
1F
100
AcDbEntity
  8
0
  6
CONTINUOUS
 62
     3
100
AcDbLine
 10
-59.9800000000001
 20
20.7519025653011
 30
0.0
 11
-59.97999999999996
 21
23.25190256530109
 31
0.0
  0
LINE
  5
DD
330
1F
100
AcDbEntity
  8
0
  6
CONTINUOUS
 62
     3
100
AcDbLine
 10
-65.38
 20
22.25190256530106
 30
0.0
 11
-65.38
 21
23.25190256530106
 31
0.0
  0
LINE
  5
DE
330
1F
100
AcDbEntity
  8
0
  6
CONTINUOUS
 62
     3
100
AcDbLine
 10
-59.98000000000002
 20
20.75190256530112
 30
0.0
 11
-65.38
 21
20.75190256530109
 31
0.0
  0
LINE
  5
DF
330
1F
100
AcDbEntity
  8
0
  6
CONTINUOUS
 62
     3
100
AcDbLine
 10
-65.38
 20
22.25190256530106
 30
0.0
 11
-65.38
 21
20.75190256530109
 31
0.0
  0
LINE
  5
E0
330
1F
100
AcDbEntity
  8
0
  6
CONTINUOUS
 62
     3
100
AcDbLine
 10
-8.480000000000203
 20
20.75190256530113
 30
0.0
 11
-8.480000000000061
 21
23.25190256530112
 31
0.0
  0
LINE
  5
E1
330
1F
100
AcDbEntity
  8
0
  6
CONTINUOUS
 62
     3
100
AcDbLine
 10
-13.8800000000001
 20
22.25190256530109
 30
0.0
 11
-13.8800000000001
 21
23.25190256530109
 31
0.0
  0
LINE
  5
E2
330
1F
100
AcDbEntity
  8
0
  6
CONTINUOUS
 62
     3
100
AcDbLine
 10
-8.480000000000118
 20
20.75190256530114
 30
0.0
 11
-13.8800000000001
 21
20.75190256530112
 31
0.0
  0
LINE
  5
E3
330
1F
100
AcDbEntity
  8
0
  6
CONTINUOUS
 62
     3
100
AcDbLine
 10
-13.8800000000001
 20
22.25190256530109
 30
0.0
 11
-13.8800000000001
 21
20.75190256530112
 31
0.0
  0
LINE
  5
E4
330
1F
100
AcDbEntity
  8
0
  6
CENTER
 62
     9
100
AcDbLine
 10
62.08250866879968
 20
5.251902565301172
 30
0.0
 11
81.48250866879968
 21
5.251902565301172
 31
0.0
  0
LINE
  5
E5
330
1F
100
AcDbEntity
  8
0
  6
CENTER
 62
     9
100
AcDbLine
 10
76.28250866879967
 20
12.55190256530114
 30
0.0
 11
98.68250866879967
 21
12.55190256530114
 31
0.0
  0
LINE
  5
E6
330
1F
100
AcDbEntity
  8
0
  6
CENTER
 62
     9
100
AcDbLine
 10
87.48250866879968
 20
25.25190256530116
 30
0.0
 11
87.48250866879968
 21
-14.74809743469884
 31
0.0
  0
LINE
  5
E7
330
1F
100
AcDbEntity
  8
0
  6
CENTER
 62
     9
100
AcDbLine
 10
-1.18
 20
5.251902565301187
 30
0.0
 11
-70.17999999999999
 21
5.25190256530116
 31
0.0
  0
LINE
  5
E8
330
1F
100
AcDbEntity
  8
0
  6
CENTER
 62
     9
100
AcDbLine
 10
-51.17999999999998
 20
12.25190256530114
 30
0.0
 11
-51.17999999999998
 21
-1.748097434698813
 31
0.0
  0
LINE
  5
E9
330
1F
100
AcDbEntity
  8
0
  6
CENTER
 62
     9
100
AcDbLine
 10
-65.48000000000005
 20
-12.24809743469884
 30
0.0
 11
-65.48000000000002
 21
-5.848097434698836
 31
0.0
  0
LINE
  5
EA
330
1F
100
AcDbEntity
  8
0
  6
CENTER
 62
     9
100
AcDbLine
 10
-62.28000000000006
 20
-9.048097434698839
 30
0.0
 11
-68.68000000000006
 21
-9.048097434698839
 31
0.0
  0
LINE
  5
EB
330
1F
100
AcDbEntity
  8
0
  6
CENTER
 62
     9
100
AcDbLine
 10
-23.88
 20
22.75190256530116
 30
0.0
 11
-23.88
 21
16.35190256530115
 31
0.0
  0
LINE
  5
EC
330
1F
100
AcDbEntity
  8
0
  6
CENTER
 62
     9
100
AcDbLine
 10
-27.08000000000001
 20
19.55190256530116
 30
0.0
 11
-20.68
 21
19.55190256530116
 31
0.0
  0
LINE
  5
ED
330
1F
100
AcDbEntity
  8
0
  6
CENTER
 62
     9
100
AcDbLine
 10
-5.18
 20
12.55190256530116
 30
0.0
 11
29.01999999999999
 21
12.55190256530117
 31
0.0
  0
LINE
  5
EE
330
1F
100
AcDbEntity
  8
0
  6
CONTINUOUS
 62
     9
100
AcDbLine
 10
36.08250866879968
 20
10.2519025653012
 30
0.0
 11
36.08250866879968
 21
32.80251633227872
 31
0.0
  0
INSERT
  5
EF
330
1F
100
AcDbEntity
  8
0
 62
     9
100
AcDbBlockReference
  2
_OPEN30
 10
36.08250866879968
 20
10.2519025653012
 30
0.0
 41
3.000002787824364
 42
2.999989273978464
 50
270.0
  0
LINE
  5
F0
330
1F
100
AcDbEntity
  8
0
  6
CONTINUOUS
 62
     9
100
AcDbLine
 10
36.08250866879968
 20
0.2519025653012008
 30
0.0
 11
36.08250866879968
 21
-5.0037356593088
 31
0.0
  0
INSERT
  5
F1
330
1F
100
AcDbEntity
  8
0
 62
     9
100
AcDbBlockReference
  2
_OPEN30
 10
36.08250866879968
 20
0.2519025653012008
 30
0.0
 41
3.000002787824364
 42
2.999989273978464
 50
90.0
  0
LINE
  5
F2
330
1F
100
AcDbEntity
  8
0
  6
CONTINUOUS
 62
     9
100
AcDbLine
 10
-64.78830919745127
 20
-10.60101849955356
 30
0.0
 11
-59.43320822260965
 21
-22.62380249149473
 31
0.0
  0
INSERT
  5
F3
330
1F
100
AcDbEntity
  8
0
 62
     9
100
AcDbBlockReference
  2
_OPEN30
 10
-64.78830919745127
 20
-10.60101849955356
 30
0.0
 41
3.000002787824364
 42
2.999989273978464
 50
114.0087996166495
  0
LINE
  5
F4
330
1F
100
AcDbEntity
  8
0
  6
DASHED2
 62
     9
100
AcDbLine
 10
-3.180000000000007
 20
15.62690256530116
 30
0.0
 11
-2.980000000000004
 21
15.62690256530116
 31
0.0
  0
LINE
  5
F5
330
1F
100
AcDbEntity
  8
0
  6
DASHED2
 62
     9
100
AcDbLine
 10
-3.180000000000007
 20
9.476902565301195
 30
0.0
 11
-2.980000000000004
 21
9.476902565301153
 31
0.0
  0
LINE
  5
F6
330
1F
100
AcDbEntity
  8
0
  6
DASHED2
 62
     9
100
AcDbLine
 10
-2.97999999999999
 20
3.551902565301184
 30
0.0
 11
-2.980000000000004
 21
21.55190256530116
 31
0.0
  0
LINE
  5
F7
330
1F
100
AcDbEntity
  8
0
  6
DASHED2
 62
     9
100
AcDbLine
 10
-1.47999999999999
 20
23.05190256530116
 30
0.0
 11
22.02
 21
23.05190256530118
 31
0.0
  0
LINE
  5
F8
330
1F
100
AcDbEntity
  8
0
  6
DASHED2
 62
     9
100
AcDbLine
 10
-1.480000000000004
 20
2.05190256530117
 30
0.0
 11
22.02
 21
2.05190256530117
 31
0.0
  0
LINE
  5
F9
330
1F
100
AcDbEntity
  8
0
  6
DASHED2
 62
     9
100
AcDbLine
 10
22.02
 20
2.051902565301184
 30
0.0
 11
22.02
 21
23.05190256530118
 31
0.0
  0
LINE
  5
FA
330
1F
100
AcDbEntity
  8
0
  6
DASHED2
 62
     9
100
AcDbLine
 10
20.52000000000002
 20
2.05190256530117
 30
0.0
 11
20.52000000000002
 21
23.05190256530116
 31
0.0
  0
LINE
  5
FB
330
1F
100
AcDbEntity
  8
0
  6
DASHED2
 62
     9
100
AcDbLine
 10
-1.480000000000004
 20
18.05190256530118
 30
0.0
 11
22.02000000000001
 21
18.05190256530118
 31
0.0
  0
LINE
  5
FC
330
1F
100
AcDbEntity
  8
0
  6
DASHED2
 62
     9
100
AcDbLine
 10
-1.47999999999999
 20
7.051902565301155
 30
0.0
 11
22.02000000000001
 21
7.05190256530117
 31
0.0
  0
ARC
  5
FD
330
1F
100
AcDbEntity
  8
0
  6
DASHED2
 62
     9
100
AcDbCircle
 10
-1.47999999999999
 20
21.55190256530116
 30
0.0
 40
1.5
100
AcDbArc
 50
90.0
 51
180.0
  0
ARC
  5
FE
330
1F
100
AcDbEntity
  8
0
  6
DASHED2
 62
     9
100
AcDbCircle
 10
-1.480000000000004
 20
16.55190256530118
 30
0.0
 40
1.5
100
AcDbArc
 50
90.0
 51
180.0
  0
ARC
  5
FF
330
1F
100
AcDbEntity
  8
0
  6
DASHED2
 62
     9
100
AcDbCircle
 10
-1.47999999999999
 20
8.55190256530117
 30
0.0
 40
1.5
100
AcDbArc
 50
180.0
 51
269.9999999999999
  0
ARC
  5
100
330
1F
100
AcDbEntity
  8
0
  6
DASHED2
 62
     9
100
AcDbCircle
 10
-1.480000000000004
 20
3.551902565301184
 30
0.0
 40
1.5
100
AcDbArc
 50
180.0
 51
269.9999999999999
  0
LINE
  5
101
330
1F
100
AcDbEntity
  8
0
  6
DASHED2
 62
     9
100
AcDbLine
 10
22.02000000000001
 20
16.05190256530116
 30
0.0
 11
25.02000000000001
 21
16.05190256530116
 31
0.0
  0
LINE
  5
102
330
1F
100
AcDbEntity
  8
0
  6
DASHED2
 62
     9
100
AcDbLine
 10
22.02
 20
9.05190256530117
 30
0.0
 11
25.02
 21
9.05190256530117
 31
0.0
  0
ARC
  5
103
330
1F
100
AcDbEntity
  8
0
  6
DASHED2
 62
     9
100
AcDbCircle
 10
-1.480000000000004
 20
19.55190256530118
 30
0.0
 40
1.5
100
AcDbArc
 50
180.0
 51
270.0000000000002
  0
ARC
  5
104
330
1F
100
AcDbEntity
  8
0
  6
DASHED2
 62
     9
100
AcDbCircle
 10
-1.480000000000004
 20
5.55190256530117
 30
0.0
 40
1.5
100
AcDbArc
 50
89.99999999999974
 51
180.0
  0
LINE
  5
105
330
1F
100
AcDbEntity
  8
0
  6
DASHED2
 62
     9
100
AcDbLine
 10
25.01999999999998
 20
9.051902565301198
 30
0.0
 11
25.01999999999998
 21
11.40190256530116
 31
0.0
  0
LINE
  5
106
330
1F
100
AcDbEntity
  8
0
  6
DASHED2
 62
     9
100
AcDbLine
 10
25.01999999999997
 20
13.70190256530116
 30
0.0
 11
25.02
 21
16.05190256530116
 31
0.0
  0
ARC
  5
107
330
1F
100
AcDbEntity
  8
0
  6
DASHED2
 62
     9
100
AcDbCircle
 10
19.52000000000001
 20
12.55190256530118
 30
0.0
 40
1.0
100
AcDbArc
 50
126.8698976458442
 51
233.1301023541562
  0
LINE
  5
108
330
1F
100
AcDbEntity
  8
0
  6
DASHED2
 62
     9
100
AcDbLine
 10
20.52000000000002
 20
14.80190256530117
 30
0.0
 11
22.02
 21
14.80190256530117
 31
0.0
  0
LINE
  5
109
330
1F
100
AcDbEntity
  8
0
  6
DASHED2
 62
     9
100
AcDbLine
 10
20.52000000000002
 20
10.30190256530117
 30
0.0
 11
22.02
 21
10.30190256530117
 31
0.0
  0
LINE
  5
10A
330
1F
100
AcDbEntity
  8
0
  6
DASHED2
 62
     9
100
AcDbLine
 10
20.52000000000002
 20
14.55190256530118
 30
0.0
 11
18.92000000000002
 21
13.35190256530117
 31
0.0
  0
LINE
  5
10B
330
1F
100
AcDbEntity
  8
0
  6
DASHED2
 62
     9
100
AcDbLine
 10
20.52000000000002
 20
10.55190256530117
 30
0.0
 11
18.92
 21
11.75190256530117
 31
0.0
  0
ARC
  5
10C
330
1F
100
AcDbEntity
  8
0
  6
DASHED2
 62
     9
100
AcDbCircle
 10
87.48250866879968
 20
12.55190256530114
 30
0.0
 40
10.5
100
AcDbArc
 50
208.8138172904464
 51
331.1861827095528
  0
ARC
  5
10D
330
1F
100
AcDbEntity
  8
0
  6
DASHED2
 62
     9
100
AcDbCircle
 10
87.48250866879968
 20
12.55190256530114
 30
0.0
 40
10.5
100
AcDbArc
 50
28.81381729044727
 51
151.1861827095536
  0
ARC
  5
10E
330
1F
100
AcDbEntity
  8
0
  6
DASHED2
 62
     9
100
AcDbCircle
 10
87.48250866879968
 20
12.55190256530114
 30
0.0
 40
4.0
100
AcDbArc
 50
298.9550243718599
 51
421.0449756281403
  0
ARC
  5
10F
330
1F
100
AcDbEntity
  8
0
  6
DASHED2
 62
     9
100
AcDbCircle
 10
87.48250866879968
 20
12.55190256530114
 30
0.0
 40
4.0
100
AcDbArc
 50
118.9550243718598
 51
241.0449756281404
  0
LINE
  5
110
330
1F
100
AcDbEntity
  8
0
  6
DASHED2
 62
     9
100
AcDbLine
 10
89.41900034190337
 20
16.05190256530114
 30
0.0
 11
85.54601699569597
 21
16.05190256530114
 31
0.0
  0
LINE
  5
111
330
1F
100
AcDbEntity
  8
0
  6
DASHED2
 62
     9
100
AcDbLine
 10
85.54601699569597
 20
9.051902565301141
 30
0.0
 11
89.41900034190337
 21
9.051902565301113
 31
0.0
  0
CIRCLE
  5
112
330
1F
100
AcDbEntity
  8
0
  6
DASHED2
 62
     9
100
AcDbCircle
 10
87.48250866879968
 20
12.55190256530114
 30
0.0
 40
1.0
  0
LINE
  5
113
330
1F
100
AcDbEntity
  8
0
  6
DASHED2
 62
     9
100
AcDbLine
 10
80.24941601248995
 20
16.05190256530106
 30
0.0
 11
82.24941601248995
 21
16.05190256530106
 31
0.0
  0
ARC
  5
114
330
1F
100
AcDbEntity
  8
0
  6
DASHED2
 62
     9
100
AcDbCircle
 10
87.4825086687998
 20
22.81440256530096
 30
0.0
 40
2.262500000000117
100
AcDbArc
 50
180.2317269558263
 51
359.7682730441736
  0
ARC
  5
115
330
1F
100
AcDbEntity
  8
0
  6
DASHED2
 62
     9
100
AcDbCircle
 10
87.4825086687998
 20
2.289402565301323
 30
0.0
 40
2.262500000000119
100
AcDbArc
 50
0.231726955826593
 51
179.7682730441735
  0
LINE
  5
116
330
1F
100
AcDbEntity
  8
0
  6
DASHED2
 62
     9
100
AcDbLine
 10
81.24941601248995
 20
17.05190256530111
 30
0.0
 11
81.24941601248995
 21
15.05190256530111
 31
0.0
  0
CIRCLE
  5
117
330
1F
100
AcDbEntity
  8
0
  6
DASHED2
 62
     9
100
AcDbCircle
 10
81.24941601248995
 20
16.05190256530111
 30
0.0
 40
1.4
  0
LINE
  5
118
330
1F
100
AcDbEntity
  8
0
  6
DASHED2
 62
     9
100
AcDbLine
 10
78.28250866879967
 20
17.61253493685309
 30
0.0
 11
78.28250866879967
 21
7.491270193749195
 31
0.0
  0
LINE
  5
119
330
1F
100
AcDbEntity
  8
0
  6
DASHED2
 62
     9
100
AcDbLine
 10
96.68250866879967
 20
17.6125349368532
 30
0.0
 11
96.68250866879967
 21
7.491270193749053
 31
0.0
  0
ARC
  5
11A
330
1F
100
AcDbEntity
  8
0
  6
DASHED2
 62
     9
100
AcDbCircle
 10
74.07138105723297
 20
12.55179571322137
 30
0.0
 40
5.311127612641504
100
AcDbArc
 50
335.152261441511
 51
384.8504894145385
  0
ARC
  5
11B
330
1F
100
AcDbEntity
  8
0
  6
DASHED2
 62
     9
100
AcDbCircle
 10
100.8936362803664
 20
12.55179571322136
 30
0.0
 40
5.311127612641504
100
AcDbArc
 50
155.1495105854615
 51
204.8477385584889
  0
ARC
  5
11C
330
1F
100
AcDbEntity
  8
0
  6
DASHED2
 62
     9
100
AcDbCircle
 10
87.48250866879974
 20
32.18086891145757
 30
0.0
 40
10.22896634615642
100
AcDbArc
 50
257.7330190864225
 51
282.2669809135774
  0
ARC
  5
11D
330
1F
100
AcDbEntity
  8
0
  6
DASHED2
 62
     9
100
AcDbCircle
 10
87.48250866879977
 20
-7.077063780855447
 30
0.0
 40
10.22896634615642
100
AcDbArc
 50
77.73301908642273
 51
102.2669809135775
  0
LINE
  5
11E
330
1F
100
AcDbEntity
  8
0
  6
DASHED2
 62
     9
100
AcDbLine
 10
22.02
 20
13.55190256530116
 30
0.0
 11
22.02
 21
11.55190256530116
 31
0.0
  0
ARC
  5
11F
330
1F
100
AcDbEntity
  8
0
  6
DASHED2
 62
     9
100
AcDbCircle
 10
96.44510132510948
 20
12.55190256530106
 30
0.0
 40
2.262499999999988
100
AcDbArc
 50
83.97442499163635
 51
276.0237680942636
  0
ARC
  5
120
330
1F
100
AcDbEntity
  8
0
  6
DASHED2
 62
     9
100
AcDbCircle
 10
78.51991601248997
 20
12.55190256530106
 30
0.0
 40
2.262500000000004
100
AcDbArc
 50
264.1067668256538
 51
456.0255750083678
  0
LINE
  5
121
330
1F
100
AcDbEntity
  8
0
  6
DASHED2
 62
     9
100
AcDbLine
 10
81.88250866879983
 20
13.70190256530135
 30
0.0
 11
81.88250866879974
 21
11.40190256530102
 31
0.0
  0
LINE
  5
122
330
1F
100
AcDbEntity
  8
0
  6
DASHED2
 62
     9
100
AcDbLine
 10
81.58250866879982
 20
13.70190256530132
 30
0.0
 11
81.58250866879976
 21
11.40190256530133
 31
0.0
  0
LINE
  5
123
330
1F
100
AcDbEntity
  8
0
  6
DASHED2
 62
     9
100
AcDbLine
 10
81.58250866879982
 20
13.70190256530132
 30
0.0
 11
81.88250866879983
 21
13.70190256530135
 31
0.0
  0
LINE
  5
124
330
1F
100
AcDbEntity
  8
0
  6
DASHED2
 62
     9
100
AcDbLine
 10
81.58250866879976
 20
11.40190256530133
 30
0.0
 11
81.88250866879974
 21
11.40190256530102
 31
0.0
  0
LINE
  5
125
330
1F
100
AcDbEntity
  8
0
  6
DASHED2
 62
     9
100
AcDbLine
 10
93.08250866879959
 20
13.70190256530135
 30
0.0
 11
93.08250866879965
 21
11.40190256530102
 31
0.0
  0
LINE
  5
126
330
1F
100
AcDbEntity
  8
0
  6
DASHED2
 62
     9
100
AcDbLine
 10
93.3825086687996
 20
13.70190256530132
 30
0.0
 11
93.38250866879963
 21
11.40190256530133
 31
0.0
  0
LINE
  5
127
330
1F
100
AcDbEntity
  8
0
  6
DASHED2
 62
     9
100
AcDbLine
 10
93.3825086687996
 20
13.70190256530132
 30
0.0
 11
93.08250866879959
 21
13.70190256530135
 31
0.0
  0
LINE
  5
128
330
1F
100
AcDbEntity
  8
0
  6
DASHED2
 62
     9
100
AcDbLine
 10
93.38250866879963
 20
11.40190256530133
 30
0.0
 11
93.08250866879965
 21
11.40190256530102
 31
0.0
  0
LINE
  5
129
330
1F
100
AcDbEntity
  8
0
  6
DASHED2
 62
     9
100
AcDbLine
 10
22.02000000000001
 20
13.70190256530116
 30
0.0
 11
26.36999999999999
 21
13.70190256530116
 31
0.0
  0
LINE
  5
12A
330
1F
100
AcDbEntity
  8
0
  6
DASHED2
 62
     9
100
AcDbLine
 10
22.02000000000001
 20
11.40190256530116
 30
0.0
 11
26.36999999999999
 21
11.40190256530116
 31
0.0
  0
ARC
  5
12B
330
1F
100
AcDbEntity
  8
0
  6
DASHED2
 62
     9
100
AcDbCircle
 10
26.36999999999999
 20
12.55190256530117
 30
0.0
 40
1.15
100
AcDbArc
 50
269.9999999999999
 51
450.0
  0
CIRCLE
  5
12C
330
1F
100
AcDbEntity
  8
0
  6
DASHED2
 62
     9
100
AcDbCircle
 10
26.36999999999998
 20
12.55190256530117
 30
0.0
 40
0.6
  0
LINE
  5
12D
330
1F
100
AcDbEntity
  8
0
  6
CONTINUOUS
 62
     9
100
AcDbLine
 10
63.08250866879968
 20
7.151902565301192
 30
0.0
 11
50.08250866879968
 21
7.151902565301192
 31
0.0
  0
LINE
  5
12E
330
1F
100
AcDbEntity
  8
0
  6
CONTINUOUS
 62
     9
100
AcDbLine
 10
63.58250866879965
 20
2.251902565301215
 30
0.0
 11
48.07776402524991
 21
2.251902565301215
 31
0.0
  0
LINE
  5
12F
330
1F
100
AcDbEntity
  8
0
  6
CONTINUOUS
 62
     9
100
AcDbLine
 10
51.08250866879968
 20
2.251902565301215
 30
0.0
 11
51.08250866879968
 21
7.151902565301192
 31
0.0
  0
LINE
  5
130
330
1F
100
AcDbEntity
  8
0
  6
CONTINUOUS
 62
     9
100
AcDbLine
 10
63.58250866879965
 20
7.151902565301221
 30
0.0
 11
56.2238545254144
 21
7.151902565301221
 31
0.0
  0
LINE
  5
131
330
1F
100
AcDbEntity
  8
0
  6
CONTINUOUS
 62
     9
100
AcDbLine
 10
64.08250866879968
 20
3.251902565301187
 30
0.0
 11
57.08250866879968
 21
3.251902565301158
 31
0.0
  0
LINE
  5
132
330
1F
100
AcDbEntity
  8
0
  6
CONTINUOUS
 62
     9
100
AcDbLine
 10
58.08250866879968
 20
3.251902565301158
 30
0.0
 11
58.08250866879968
 21
7.151902565301192
 31
0.0
  0
LINE
  5
133
330
1F
100
AcDbEntity
  8
0
  6
CONTINUOUS
 62
     9
100
AcDbLine
 10
63.58250866879968
 20
2.251902565301187
 30
0.0
 11
42.08250866879968
 21
2.251902565301187
 31
0.0
  0
LINE
  5
134
330
1F
100
AcDbEntity
  8
0
  6
CONTINUOUS
 62
     9
100
AcDbLine
 10
73.58250866879973
 20
8.251902565301243
 30
0.0
 11
42.08250866879968
 21
8.251902565301243
 31
0.0
  0
LINE
  5
135
330
1F
100
AcDbEntity
  8
0
  6
CONTINUOUS
 62
     9
100
AcDbLine
 10
43.08250866879968
 20
2.251902565301187
 30
0.0
 11
43.08250866879968
 21
8.251902565301243
 31
0.0
  0
LINE
  5
136
330
1F
100
AcDbEntity
  8
0
  6
CONTINUOUS
 62
     9
100
AcDbLine
 10
75.48250866879968
 20
0.2519025653012008
 30
0.0
 11
35.08250866879968
 21
0.2519025653012008
 31
0.0
  0
LINE
  5
137
330
1F
100
AcDbEntity
  8
0
  6
CONTINUOUS
 62
     9
100
AcDbLine
 10
75.48250866879974
 20
10.2519025653012
 30
0.0
 11
35.08250866879968
 21
10.2519025653012
 31
0.0
  0
LINE
  5
138
330
1F
100
AcDbEntity
  8
0
  6
CONTINUOUS
 62
     9
100
AcDbLine
 10
36.08250866879968
 20
0.2519025653012008
 30
0.0
 11
36.08250866879968
 21
10.2519025653012
 31
0.0
  0
LINE
  5
139
330
1F
100
AcDbEntity
  8
0
  6
CONTINUOUS
 62
     9
100
AcDbLine
 10
-71.17999999999999
 20
5.25190256530116
 30
0.0
 11
-74.18000000000004
 21
5.25190256530116
 31
0.0
  0
LINE
  5
13A
330
1F
100
AcDbEntity
  8
0
  6
CONTINUOUS
 62
     9
100
AcDbLine
 10
-68.68000000000006
 20
-9.048097434698839
 30
0.0
 11
-74.18000000000004
 21
-9.048097434698796
 31
0.0
  0
LINE
  5
13B
330
1F
100
AcDbEntity
  8
0
  6
CONTINUOUS
 62
     9
100
AcDbLine
 10
-65.47999999999999
 20
19.5519025653012
 30
0.0
 11
-74.18000000000004
 21
19.5519025653012
 31
0.0
  0
LINE
  5
13C
330
1F
100
AcDbEntity
  8
0
  6
CONTINUOUS
 62
     9
100
AcDbLine
 10
-69.18000000000001
 20
23.25190256530116
 30
0.0
 11
-81.18000000000001
 21
23.25190256530116
 31
0.0
  0
LINE
  5
13D
330
1F
100
AcDbEntity
  8
0
  6
CONTINUOUS
 62
     9
100
AcDbLine
 10
-69.17999999999998
 20
-12.74809743469886
 30
0.0
 11
-81.18000000000001
 21
-12.74809743469886
 31
0.0
  0
LINE
  5
13E
330
1F
100
AcDbEntity
  8
0
  6
CONTINUOUS
 62
     9
100
AcDbLine
 10
-59.43320822260965
 20
-22.62380249149473
 30
0.0
 11
-39.25510603282864
 21
-22.62380249149473
 31
0.0
  0
LINE
  5
13F
330
1F
100
AcDbEntity
  8
0
  6
CONTINUOUS
 62
     9
100
AcDbLine
 10
51.08250866879968
 20
32.80251633227872
 30
0.0
 11
51.08250866879968
 21
7.151902565301192
 31
0.0
  0
INSERT
  5
140
330
1F
100
AcDbEntity
  8
0
 62
     9
100
AcDbBlockReference
  2
_OPEN30
 10
51.08250866879968
 20
7.151902565301192
 30
0.0
 41
3.000002787824364
 42
2.999989273978464
 50
270.0
  0
LINE
  5
141
330
1F
100
AcDbEntity
  8
0
  6
CONTINUOUS
 62
     9
100
AcDbLine
 10
51.08250866879968
 20
-5.0037356593088
 30
0.0
 11
51.08250866879968
 21
2.251902565301215
 31
0.0
  0
INSERT
  5
142
330
1F
100
AcDbEntity
  8
0
 62
     9
100
AcDbBlockReference
  2
_OPEN30
 10
51.08250866879968
 20
2.251902565301215
 30
0.0
 41
3.000002787824364
 42
2.999989273978464
 50
90.0
  0
LINE
  5
143
330
1F
100
AcDbEntity
  8
0
  6
CONTINUOUS
 62
     9
100
AcDbLine
 10
58.08250866879968
 20
18.32968256530119
 30
0.0
 11
58.08250866879968
 21
7.151902565301192
 31
0.0
  0
INSERT
  5
144
330
1F
100
AcDbEntity
  8
0
 62
     9
100
AcDbBlockReference
  2
_OPEN30
 10
58.08250866879968
 20
7.151902565301192
 30
0.0
 41
3.000002787824364
 42
2.999989273978464
 50
270.0
  0
LINE
  5
145
330
1F
100
AcDbEntity
  8
0
  6
CONTINUOUS
 62
     9
100
AcDbLine
 10
58.08250866879968
 20
-5.0037356593088
 30
0.0
 11
58.08250866879968
 21
3.251902565301158
 31
0.0
  0
INSERT
  5
146
330
1F
100
AcDbEntity
  8
0
 62
     9
100
AcDbBlockReference
  2
_OPEN30
 10
58.08250866879968
 20
3.251902565301158
 30
0.0
 41
3.000002787824364
 42
2.999989273978464
 50
90.0
  0
LINE
  5
147
330
1F
100
AcDbEntity
  8
0
  6
CONTINUOUS
 62
     9
100
AcDbLine
 10
43.08250866879968
 20
32.80251633227872
 30
0.0
 11
43.08250866879968
 21
8.251902565301243
 31
0.0
  0
INSERT
  5
148
330
1F
100
AcDbEntity
  8
0
 62
     9
100
AcDbBlockReference
  2
_OPEN30
 10
43.08250866879968
 20
8.251902565301243
 30
0.0
 41
3.000002787824364
 42
2.999989273978464
 50
270.0
  0
LINE
  5
149
330
1F
100
AcDbEntity
  8
0
  6
CONTINUOUS
 62
     9
100
AcDbLine
 10
43.08250866879968
 20
-5.0037356593088
 30
0.0
 11
43.08250866879968
 21
2.251902565301187
 31
0.0
  0
INSERT
  5
14A
330
1F
100
AcDbEntity
  8
0
 62
     9
100
AcDbBlockReference
  2
_OPEN30
 10
43.08250866879968
 20
2.251902565301187
 30
0.0
 41
3.000002787824364
 42
2.999989273978464
 50
90.0
  0
LINE
  5
14B
330
1F
100
AcDbEntity
  8
0
  6
CONTINUOUS
 62
     9
100
AcDbLine
 10
-73.18000000000004
 20
-9.048097434698796
 30
0.0
 11
-73.18000000000004
 21
5.251902565301165
 31
0.0
  0
INSERT
  5
14C
330
1F
100
AcDbEntity
  8
0
 62
     9
100
AcDbBlockReference
  2
_OPEN30
 10
-73.18000000000004
 20
-9.048097434698796
 30
0.0
 41
3.000002787824364
 42
2.999989273978464
 50
270.0
  0
INSERT
  5
14D
330
1F
100
AcDbEntity
  8
0
 62
     9
100
AcDbBlockReference
  2
_OPEN30
 10
-73.18000000000004
 20
5.251902565301165
 30
0.0
 41
3.000002787824364
 42
2.999989273978464
 50
90.0
  0
LINE
  5
14E
330
1F
100
AcDbEntity
  8
0
  6
CONTINUOUS
 62
     9
100
AcDbLine
 10
-73.18000000000004
 20
5.251902565301165
 30
0.0
 11
-73.18000000000004
 21
19.5519025653012
 31
0.0
  0
INSERT
  5
14F
330
1F
100
AcDbEntity
  8
0
 62
     9
100
AcDbBlockReference
  2
_OPEN30
 10
-73.18000000000004
 20
5.251902565301165
 30
0.0
 41
3.000002787824364
 42
2.999989273978464
 50
270.0
  0
INSERT
  5
150
330
1F
100
AcDbEntity
  8
0
 62
     9
100
AcDbBlockReference
  2
_OPEN30
 10
-73.18000000000004
 20
19.5519025653012
 30
0.0
 41
3.000002787824364
 42
2.999989273978464
 50
90.0
  0
LINE
  5
151
330
1F
100
AcDbEntity
  8
0
  6
CONTINUOUS
 62
     9
100
AcDbLine
 10
-80.18000000000001
 20
-12.74809743469886
 30
0.0
 11
-80.18000000000001
 21
23.25190256530116
 31
0.0
  0
INSERT
  5
152
330
1F
100
AcDbEntity
  8
0
 62
     9
100
AcDbBlockReference
  2
_OPEN30
 10
-80.18000000000001
 20
-12.74809743469886
 30
0.0
 41
3.000002787824364
 42
2.999989273978464
 50
270.0
  0
INSERT
  5
153
330
1F
100
AcDbEntity
  8
0
 62
     9
100
AcDbBlockReference
  2
_OPEN30
 10
-80.18000000000001
 20
23.25190256530116
 30
0.0
 41
3.000002787824364
 42
2.999989273978464
 50
90.0
  0
LINE
  5
154
330
1F
100
AcDbEntity
  8
LAYER0002
  6
CENTER
 62
     9
100
AcDbLine
 10
-62.68000000000006
 20
25.25190256530114
 30
0.0
 11
-62.68000000000004
 21
18.7519025653011
 31
0.0
  0
LINE
  5
155
330
1F
100
AcDbEntity
  8
LAYER0002
  6
CENTER
 62
     9
100
AcDbLine
 10
-11.18000000000006
 20
-8.248097434698579
 30
0.0
 11
-11.18000000000003
 21
-14.74809743469865
 31
0.0
  0
LINE
  5
156
330
1F
100
AcDbEntity
  8
LAYER0002
  6
CENTER
 62
     9
100
AcDbLine
 10
-11.18000000000005
 20
25.25190256530114
 30
0.0
 11
-11.18000000000005
 21
18.7519025653011
 31
0.0
  0
LINE
  5
157
330
1F
100
AcDbEntity
  8
LAYER0002
  6
CENTER
 62
     9
100
AcDbLine
 10
-57.17999999999995
 20
-14.74809743469883
 30
0.0
 11
-57.17999999999995
 21
-8.248097434698785
 31
0.0
  0
ARC
  5
158
330
1F
100
AcDbEntity
  8
LAYER0002
  6
CONTINUOUS
 62
     3
100
AcDbCircle
 10
-23.88000000000003
 20
19.55190256530118
 30
0.0
 40
3.699999999999999
100
AcDbArc
 50
192.284493856348
 51
347.7155061436519
  0
ARC
  5
159
330
1F
100
AcDbEntity
  8
LAYER0002
  6
CONTINUOUS
 62
     3
100
AcDbCircle
 10
-65.48000000000005
 20
-9.048097434698839
 30
0.0
 40
3.7
100
AcDbArc
 50
12.28449385634844
 51
77.71550614365182
  0
LINE
  5
15A
330
1F
100
AcDbEntity
  8
LAYER0004
  6
CONTINUOUS
 62
     3
100
AcDbLine
 10
91.4825086687996
 20
0.2819025653011309
 30
0.0
 11
91.4825086687996
 21
-12.71809743469888
 31
0.0
  0
LINE
  5
15B
330
1F
100
AcDbEntity
  8
LAYER0004
  6
CONTINUOUS
 62
     3
100
AcDbLine
 10
91.48250866879974
 20
22.26014648477491
 30
0.0
 11
91.48250866879971
 21
23.28190256530116
 31
0.0
  0
LINE
  5
15C
330
1F
100
AcDbEntity
  8
LAYER0004
  6
CONTINUOUS
 62
     3
100
AcDbLine
 10
91.4825086687996
 20
0.2819025653011309
 30
0.0
 11
82.98250866879968
 21
0.281902565301202
 31
0.0
  0
LINE
  5
15D
330
1F
100
AcDbEntity
  8
LAYER0004
  6
CONTINUOUS
 62
     3
100
AcDbLine
 10
82.48250866879968
 20
3.318809908991447
 30
0.0
 11
82.48250866879968
 21
0.781902565301202
 31
0.0
  0
ARC
  5
15E
330
1F
100
AcDbEntity
  8
LAYER0004
  6
CONTINUOUS
 62
     3
100
AcDbCircle
 10
82.98250866879968
 20
0.781902565301202
 30
0.0
 40
0.5
100
AcDbArc
 50
180.0
 51
269.9999999999996
  0
TEXT
  5
15F
330
1F
100
AcDbEntity
  8
0
 62
     7
100
AcDbText
 10
50.08250866879968
 20
12.17255219539745
 30
0.0
 40
4.0
  1
4.9
 50
90.0
 41
0.8000000000000002
  7
FDASTYLE0
 72
     5
 11
50.08250866879968
 21
21.77255219539745
 31
0.0
100
AcDbText
  0
TEXT
  5
160
330
1F
100
AcDbEntity
  8
0
 62
     7
100
AcDbText
 10
47.43750866879969
 20
22.59255219539745
 30
0.0
 40
2.5
  1
+0.1
 50
90.0
 41
0.8
  7
FDASTYLE0
 72
     5
 11
47.43750866879969
 21
30.59255219539745
 31
0.0
100
AcDbText
  0
TEXT
  5
161
330
1F
100
AcDbEntity
  8
0
 62
     7
100
AcDbText
 10
50.28250866879969
 20
22.59255219539745
 30
0.0
 40
2.5
  1
-0.2
 50
90.0
 41
0.8
  7
FDASTYLE0
 72
     5
 11
50.28250866879969
 21
30.59255219539745
 31
0.0
100
AcDbText
  0
TEXT
  5
162
330
1F
100
AcDbEntity
  8
0
 62
     7
100
AcDbText
 10
57.08250866879968
 20
12.04968256530119
 30
0.0
 40
4.0
  1
φ4
 50
90.0
 41
0.7272727272727271
  7
FDASTYLE0
 72
     5
 11
57.08250866879968
 21
18.44968256530119
 31
0.0
100
AcDbText
  0
TEXT
  5
163
330
1F
100
AcDbEntity
  8
0
 62
     7
100
AcDbText
 10
42.08250866879968
 20
12.23702408723007
 30
0.0
 40
4.0
  1
φ6
 50
90.0
 41
0.7272727272727271
  7
FDASTYLE0
 72
     5
 11
42.08250866879968
 21
18.63702408723007
 31
0.0
100
AcDbText
  0
TEXT
  5
164
330
1F
100
AcDbEntity
  8
0
 62
     7
100
AcDbText
 10
39.53750866879968
 20
19.51702408723007
 30
0.0
 40
2.5
  1
　0
 50
90.0
 41
0.7272727272727273
  7
FDASTYLE0
 72
     5
 11
39.53750866879968
 21
23.51702408723007
 31
0.0
100
AcDbText
  0
TEXT
  5
165
330
1F
100
AcDbEntity
  8
0
 62
     7
100
AcDbText
 10
42.28250866879969
 20
19.51702408723007
 30
0.0
 40
2.5
  1
-0.015
 50
90.0
 41
0.8
  7
FDASTYLE0
 72
     5
 11
42.28250866879969
 21
31.51702408723007
 31
0.0
100
AcDbText
  0
TEXT
  5
166
330
1F
100
AcDbEntity
  8
0
 62
     7
100
AcDbText
 10
34.58250866879968
 20
12.7075407899112
 30
0.0
 40
4.0
  1
φ10
 50
90.0
 41
0.7500000000000003
  7
FDASTYLE0
 72
     5
 11
34.58250866879968
 21
22.30754078991121
 31
0.0
100
AcDbText
  0
TEXT
  5
167
330
1F
100
AcDbEntity
  8
0
 62
     7
100
AcDbText
 10
32.03750866879968
 20
22.96754078991121
 30
0.0
 40
2.5
  1
　0
 50
90.0
 41
0.7272727272727273
  7
FDASTYLE0
 72
     5
 11
32.03750866879968
 21
26.96754078991121
 31
0.0
100
AcDbText
  0
TEXT
  5
168
330
1F
100
AcDbEntity
  8
0
 62
     7
100
AcDbText
 10
34.78250866879969
 20
22.96754078991121
 30
0.0
 40
2.5
  1
-0.15
 50
90.0
 41
0.8
  7
FDASTYLE0
 72
     5
 11
34.78250866879969
 21
32.96754078991121
 31
0.0
100
AcDbText
  0
TEXT
  5
169
330
1F
100
AcDbEntity
  8
0
 62
     7
100
AcDbText
 10
-74.18000000000004
 20
-8.298097434698825
 30
0.0
 40
4.0
  1
14.3
 50
90.0
 41
0.8000000000000007
  7
FDASTYLE0
 72
     5
 11
-74.18000000000004
 21
4.501902565301187
 31
0.0
100
AcDbText
  0
TEXT
  5
16A
330
1F
100
AcDbEntity
  8
0
 62
     7
100
AcDbText
 10
-74.18000000000004
 20
6.001902565301172
 30
0.0
 40
4.0
  1
14.3
 50
90.0
 41
0.8000000000000007
  7
FDASTYLE0
 72
     5
 11
-74.18000000000004
 21
18.80190256530118
 31
0.0
100
AcDbText
  0
TEXT
  5
16B
330
1F
100
AcDbEntity
  8
0
 62
     7
100
AcDbText
 10
-80.68000000000001
 20
2.051902565301148
 30
0.0
 40
4.0
  1
36
 50
90.0
 41
0.8000000000000007
  7
FDASTYLE0
 72
     5
 11
-80.68000000000001
 21
8.451902565301154
 31
0.0
100
AcDbText
  0
TEXT
  5
16C
330
1F
100
AcDbEntity
  8
0
 62
     7
100
AcDbText
 10
-58.45510603282864
 20
-22.12380249149473
 30
0.0
 40
4.0
  1
2-φ3.4
 41
0.7741935483870969
  7
FDASTYLE0
 72
     5
 11
-39.25510603282864
 21
-22.12380249149473
 31
0.0
100
AcDbText
  0
INSERT
  5
16D
330
1F
100
AcDbEntity
  8
0
  6
CONTINUOUS
100
AcDbBlockReference
  2
DA_IMAGEDIMGROUP_1
 10
0.0
 20
0.0
 30
0.0
  0
INSERT
  5
16E
330
1F
100
AcDbEntity
  8
0
  6
CONTINUOUS
100
AcDbBlockReference
  2
DA_IMAGEDIMGROUP_2
 10
0.0
 20
0.0
 30
0.0
  0
INSERT
  5
16F
330
1F
100
AcDbEntity
  8
0
  6
CONTINUOUS
100
AcDbBlockReference
  2
DA_IMAGEDIMGROUP_3
 10
0.0
 20
0.0
 30
0.0
  0
INSERT
  5
170
330
1F
100
AcDbEntity
  8
0
  6
CONTINUOUS
100
AcDbBlockReference
  2
DA_IMAGEDIMGROUP_4
 10
0.0
 20
0.0
 30
0.0
  0
INSERT
  5
171
330
1F
100
AcDbEntity
  8
0
  6
CONTINUOUS
100
AcDbBlockReference
  2
DA_IMAGEDIMGROUP_5
 10
0.0
 20
0.0
 30
0.0
  0
INSERT
  5
172
330
1F
100
AcDbEntity
  8
0
  6
CONTINUOUS
100
AcDbBlockReference
  2
DA_IMAGEDIMGROUP_6
 10
0.0
 20
0.0
 30
0.0
  0
INSERT
  5
173
330
1F
100
AcDbEntity
  8
0
  6
CONTINUOUS
100
AcDbBlockReference
  2
DA_IMAGEDIMGROUP_7
 10
0.0
 20
0.0
 30
0.0
  0
VIEWPORT
  5
48
330
1B
100
AcDbEntity
 67
     1
  8
0
100
AcDbViewport
 10
7.001254334399846
 20
-9.436950183414638
 30
0.0
 40
550.087526006399
 41
253.4367990941602
 68
     1
 69
     1
1001
ACAD
1000
MVIEW
1002
{
1070
    16
1010
0.0
1020
0.0
1030
0.0
1010
0.0
1020
0.0
1030
1.0
1040
0.0
1040
253.4367990941602
1040
7.001254334399846
1040
-9.436950183414638
1040
50.0
1040
0.0
1040
0.0
1070
     0
1070
   100
1070
     0
1070
     1
1070
     0
1070
     0
1070
     0
1070
     0
1040
0.0
1040
0.0
1040
0.0
1040
0.5
1040
0.5
1040
0.0
1040
0.0
1070
     0
1002
{
1002
}
1002
}
  0
ENDSEC
  0
SECTION
  2
OBJECTS
  0
DICTIONARY
  5
C
330
0
100
AcDbDictionary
  3
ACAD_GROUP
350
D
  3
ACAD_LAYOUT
350
1A
  3
ACAD_MLINESTYLE
350
17
  3
ACAD_PLOTSETTINGS
350
19
  3
ACDBHEADERROUNDTRIPXREC
350
174
  0
DICTIONARY
  5
D
102
{ACAD_REACTORS
330
C
102
}
330
C
100
AcDbDictionary
  0
DICTIONARY
  5
1A
102
{ACAD_REACTORS
330
C
102
}
330
C
100
AcDbDictionary
  0
DICTIONARY
  5
17
102
{ACAD_REACTORS
330
C
102
}
330
C
100
AcDbDictionary
  3
STANDARD
350
18
  0
DICTIONARY
  5
19
102
{ACAD_REACTORS
330
C
102
}
330
C
100
AcDbDictionary
  0
DICTIONARY
  5
174
102
{ACAD_REACTORS
330
C
102
}
330
C
100
AcDbDictionary
  3
CEPSNTYPE
350
17D
  3
DIMSTYLEDATA
350
193
  3
FINGERPRINTGUID
350
17E
  3
HYPERLINKBASE
350
177
  3
INSUNITS
350
17C
  3
LAYOUTDICT
350
179
  3
LWETCUNION
350
17B
  3
PLOTSETDICT
350
17A
  3
PSVPSCALE
350
180
  3
PUCSBASE
350
183
  3
PUCSORGBACK
350
189
  3
PUCSORGBOTTOM
350
185
  3
PUCSORGFRONT
350
188
  3
PUCSORGLEFT
350
186
  3
PUCSORGRIGHT
350
187
  3
PUCSORGTOP
350
184
  3
PUCSORTHOREF
350
181
  3
PUCSORTHOVIEW
350
182
  3
STYLESHEET
350
178
  3
TSTACKALIGN
350
175
  3
TSTACKSIZE
350
176
  3
UCSBASE
350
18C
  3
UCSORGBACK
350
192
  3
UCSORGBOTTOM
350
18E
  3
UCSORGFRONT
350
191
  3
UCSORGLEFT
350
18F
  3
UCSORGRIGHT
350
190
  3
UCSORGTOP
350
18D
  3
UCSORTHOREF
350
18A
  3
UCSORTHOVIEW
350
18B
  3
VERSIONGUID
350
17F
  0
MLINESTYLE
  5
18
102
{ACAD_REACTORS
330
17
102
}
330
17
100
AcDbMlineStyle
  2
Standard
 70
     0
  3

 62
   256
 51
90.0
 52
90.0
 71
     2
 49
0.5
 62
   256
  6
BYLAYER
 49
-0.5
 62
   256
  6
BYLAYER
  0
XRECORD
  5
17D
102
{ACAD_REACTORS
330
174
102
}
330
174
100
AcDbXrecord
 90
        0
  0
XRECORD
  5
193
102
{ACAD_REACTORS
330
174
102
}
330
174
100
AcDbXrecord
1000
DSTYLE
1002
{
1070
   171
 70
     2
1070
   143
 40
25.4
1070
   274
 70
     2
1070
   141
 40
0.09
1070
   271
 70
     4
1070
    43
 40
0.38
1070
    44
 40
0.18
1070
   278
 70
    46
1070
    42
 40
0.0625
1070
   147
 40
0.09
1070
    77
 70
     3
1070
   272
 70
     4
1070
    73
 70
     1
1070
   172
 70
     0
1070
    74
 70
     1
1070
   283
 70
     1
1070
   340
340
11
1070
   140
 40
0.18
1070
   284
 70
     0
1070
    78
 70
     0
1002
}
  0
XRECORD
  5
17E
102
{ACAD_REACTORS
330
174
102
}
330
174
100
AcDbXrecord
  1
{1959AFED-7893-403B-B447-F6E12579C72B}
  0
XRECORD
  5
177
102
{ACAD_REACTORS
330
174
102
}
330
174
100
AcDbXrecord
  1

  0
XRECORD
  5
17C
102
{ACAD_REACTORS
330
174
102
}
330
174
100
AcDbXrecord
 90
        4
  0
XRECORD
  5
179
102
{ACAD_REACTORS
330
174
102
}
330
174
100
AcDbXrecord
340
1A
  0
XRECORD
  5
17B
102
{ACAD_REACTORS
330
174
102
}
330
174
100
AcDbXrecord
 90
    10781
  0
XRECORD
  5
17A
102
{ACAD_REACTORS
330
174
102
}
330
174
100
AcDbXrecord
340
19
  0
XRECORD
  5
180
102
{ACAD_REACTORS
330
174
102
}
330
174
100
AcDbXrecord
 40
0.0
  0
XRECORD
  5
183
102
{ACAD_REACTORS
330
174
102
}
330
174
100
AcDbXrecord
340
0
  0
XRECORD
  5
189
102
{ACAD_REACTORS
330
174
102
}
330
174
100
AcDbXrecord
 10
0.0
 20
0.0
 30
0.0
  0
XRECORD
  5
185
102
{ACAD_REACTORS
330
174
102
}
330
174
100
AcDbXrecord
 10
0.0
 20
0.0
 30
0.0
  0
XRECORD
  5
188
102
{ACAD_REACTORS
330
174
102
}
330
174
100
AcDbXrecord
 10
0.0
 20
0.0
 30
0.0
  0
XRECORD
  5
186
102
{ACAD_REACTORS
330
174
102
}
330
174
100
AcDbXrecord
 10
0.0
 20
0.0
 30
0.0
  0
XRECORD
  5
187
102
{ACAD_REACTORS
330
174
102
}
330
174
100
AcDbXrecord
 10
0.0
 20
0.0
 30
0.0
  0
XRECORD
  5
184
102
{ACAD_REACTORS
330
174
102
}
330
174
100
AcDbXrecord
 10
0.0
 20
0.0
 30
0.0
  0
XRECORD
  5
181
102
{ACAD_REACTORS
330
174
102
}
330
174
100
AcDbXrecord
340
0
  0
XRECORD
  5
182
102
{ACAD_REACTORS
330
174
102
}
330
174
100
AcDbXrecord
 70
     0
  0
XRECORD
  5
178
102
{ACAD_REACTORS
330
174
102
}
330
174
100
AcDbXrecord
  1

  0
XRECORD
  5
175
102
{ACAD_REACTORS
330
174
102
}
330
174
100
AcDbXrecord
 90
        1
  0
XRECORD
  5
176
102
{ACAD_REACTORS
330
174
102
}
330
174
100
AcDbXrecord
 90
       70
  0
XRECORD
  5
18C
102
{ACAD_REACTORS
330
174
102
}
330
174
100
AcDbXrecord
340
0
  0
XRECORD
  5
192
102
{ACAD_REACTORS
330
174
102
}
330
174
100
AcDbXrecord
 10
0.0
 20
0.0
 30
0.0
  0
XRECORD
  5
18E
102
{ACAD_REACTORS
330
174
102
}
330
174
100
AcDbXrecord
 10
0.0
 20
0.0
 30
0.0
  0
XRECORD
  5
191
102
{ACAD_REACTORS
330
174
102
}
330
174
100
AcDbXrecord
 10
0.0
 20
0.0
 30
0.0
  0
XRECORD
  5
18F
102
{ACAD_REACTORS
330
174
102
}
330
174
100
AcDbXrecord
 10
0.0
 20
0.0
 30
0.0
  0
XRECORD
  5
190
102
{ACAD_REACTORS
330
174
102
}
330
174
100
AcDbXrecord
 10
0.0
 20
0.0
 30
0.0
  0
XRECORD
  5
18D
102
{ACAD_REACTORS
330
174
102
}
330
174
100
AcDbXrecord
 10
0.0
 20
0.0
 30
0.0
  0
XRECORD
  5
18A
102
{ACAD_REACTORS
330
174
102
}
330
174
100
AcDbXrecord
340
0
  0
XRECORD
  5
18B
102
{ACAD_REACTORS
330
174
102
}
330
174
100
AcDbXrecord
 70
     0
  0
XRECORD
  5
17F
102
{ACAD_REACTORS
330
174
102
}
330
174
100
AcDbXrecord
  1
{FAEB1C32-E019-11D5-929B-00C0DF256EC4}
  0
ENDSEC
  0
EOF
